- THE LIVING END -
                         Pictures In The Mirror
            Tabbed By Michael Fryar - [email protected]
              Solo By Matt Hosking - [email protected]

Standard Tuning.

It was hard to count the number of strums used in parts so strum chords as much as needed.
And yes I do have some weird shaped chords in there + plus a couple of open chrods.
They are the way Chris Cheney plays them in this great song.
SOME CHORDS IN THIS TAB DONT SHOW HOW MANY TIMES TO STRUM.STRUM CHORDS AS NEEDED IN SOME CASES.
Also thanks Matt for your help in this transcription.

~=vibrado
s=slide
x=dead note
^=bend
v=bring bend back down



Intro:

   G  A#  C                     D# C  F  D#   C
e-------------------------------------------------|
b-------------------------------------------------|
g-----3s5-5-5------3s5-5-5------8--5s10--8--5-5---|
d-----3s5-5-5------3s5-5-5------x--xs-x--x--x-x---|
a-x-x-1s3-3-3--x-x-1s3-3-3-x-x--6--3s-8--6--3-3---| repeat as needed
e-3-3----------3-3---------3-3--------------------|
 


Verse: 

e----------------------------------------------------------|
b----------------------------------------------------------|
g-5-----------------5-----------------5--------------------|
d-5-----------------5-----------------5--------------------| (x2)
a-3-strum as needed-x-strum as needed-x-strum as needed----|
e-------------------5-----------------4--------------------|
            
     C                D                     F     
e---------------2-2-2-2-2-2-2-2-2-2-2-2-1-1-1-1-1-1-1-1-1-1-1-1-1-1-1-1--------------------------|
b---------------3-3-3-3-3-3-3-3-3-3-3-3-1-1-1-1-1-1-1-1-1-1-1-1-1-1-1-1--7^-5-7^-5-7^-5-7^-5-7-7-|
g--5-5-5-5-5-5--2-2-2-2-2-2-2-2-2-2-2-2-2-2-2-2-2-2-2-2-2-2-2-2-2-2-2-2--7^-5-7^-5-7^-5-7^-5-7-7-|
d--5-5-5-5-5-5--0-0-0-0-0-0-0-0-0-0-0-0-3-3-3-3-3-3-3-3-3-3-3-3-3-3-3-3--------------------------|
a--3-3-3-3-3-3-----------------------------------------------------------------------------------|
e------------------------------------------------------------------------------------------------|

    D                  G                D                    A                    G   E
e-2-2-2-2-2-2-2-2-2--3-3-3-3-3-3-3-3--2-2-2-2-2-2-2-2-2--------0-------------0----3---0--|
b-3-3-3-3-3-3-3-3-3--3-3-3-3-3-3-3-3--3-3-3-3-3-3-3-3-3-------2-------------2-----3---0--|
g-2-2-2-2-2-2-2-2-2--4-4-4-4-4-4-4-4--2-2-2-2-2-2-2-2-2--2---2---2-2-2-2---2---2--4---1--|
d-0-0-0-0-0-0-0-0-0--5-5-5-5-5-5-5-5--0-0-0-0-0-0-0-0-0--2--2----2-2-2-2--2----2--5---2--|
a--------------------5-5-5-5-5-5-5-5---------------------0-0-----0-0-0-0-0-----0--5---2--|
e--------------------3-3-3-3-3-3-3-3----------------------------------------------3---0--|

e--------5----------5----5-----5-5-5-5-5-5-5-5-5-|
b-------5--5-5-----5----5-----5--5-5-5-5-5-5-5-5-|
g--5---5---5-5----5----5-----5---5-5-5-5-5-5-5-5-|
d--5--5----5-5-4-4----4---3-3----3-3-3-3-3-3-3-3-|
a--3-3-----3-3-----------------------------------|
e------------------------------------------------|


Verse (x1)


Fill between verse and chorus:
e-----------------|
b-----------------|
g-----------------|
d-----3-5-3-------|
a-3-5-------5-3---|
e-----------------| - something like that anyway.


Chorus


Bridge/Pre Solo:  

  C      Eb  F Eb  A#  C
e-------------------------|
b-------------------------|
g-5-5-5--8--10--8--3--5-5-|
d-5-5-5--8--10--8--3--5-5-|(x2)
a-3-3-3--6--8---6--1--3-3-|
e-------------------------|

Solo:

e-----------------------------------------------------------:---------------------|
b--------------------8--------------------8-----------------:---------------------|
g-8----8-------------8--------------8-----8----------8-10~--:-----------------5---|
d---10---10-10-10-10---10-8-10--------10----10-10-10--------:---------------5-5---|
a-----------------------------------------------------------:--1-0-------0--5-3---|
e-----------------------------------------------------------:------3-1-0----3-----|

e-------------------------:----13^v13p11-13-11----:-----13-15^-15-14-13-11-13-15-11(v)----|
b-----9-11^v11p8-11-8-----:-11-----------------13-:-s15--------------------------------13-|
g-s10---------------8-----:-----------------------:---------------------------------------|
d----------------------10-:-----------------------:---------------------------------------|
a-------------------------:-----------------------:---------------------------------------|
e-------------------------:-----------------------:---------------------------------------|


e----------0-----0..let ring-----|
b----------4-----0---------------|
g----5-----4-----1---------------|
d--5-5---4-4-----2---------------|
a--5-3---4-2-----2---------------|
e--3-----2-------0---------------|


 
Final Chorus:

     C                D                     F     
e---------------2-2-2-2-2-2-2-2-2-2-2-2-1-1-1-1-1-1-1-1-1-1-1-1-1-1-1-1--------------------------|
b---------------3-3-3-3-3-3-3-3-3-3-3-3-1-1-1-1-1-1-1-1-1-1-1-1-1-1-1-1--7^-5-7^-5-7^-5-7^-5-7-7-|
g--5-5-5-5-5-5--2-2-2-2-2-2-2-2-2-2-2-2-2-2-2-2-2-2-2-2-2-2-2-2-2-2-2-2--7^-5-7^-5-7^-5-7^-5-7-7-|
d--5-5-5-5-5-5--0-0-0-0-0-0-0-0-0-0-0-0-3-3-3-3-3-3-3-3-3-3-3-3-3-3-3-3--------------------------|
a--3-3-3-3-3-3-----------------------------------------------------------------------------------|
e------------------------------------------------------------------------------------------------|

    D                  G                D                    A                       
e-2-2-2-2-2-2-2-2-2--3-3-3-3-3-3-3-3--2-2-2-2-2-2-2-2-2--------0-------------0--|
b-3-3-3-3-3-3-3-3-3--3-3-3-3-3-3-3-3--3-3-3-3-3-3-3-3-3-------2-------------2---|
g-2-2-2-2-2-2-2-2-2--4-4-4-4-4-4-4-4--2-2-2-2-2-2-2-2-2--2---2---2-2-2-2---2----|
d-0-0-0-0-0-0-0-0-0--5-5-5-5-5-5-5-5--0-0-0-0-0-0-0-0-0--2--2----2-2-2-2--2-----|
a--------------------5-5-5-5-5-5-5-5---------------------0-0-----0-0-0-0-0------|
e--------------------3-3-3-3-3-3-3-3--------------------------------------------|

       D                A#              B             G                   D      A
e-2-2-2-2-2-2-2-2-----------------------------------3-3-3-3-3-3-3--------2-2--------|
b-3-3-3-3-3-3-3-3-----------------------------------3-3-3-3-3-3-3--------3-3--------|
g-2-2-2-2-2-2-2-2--3-3-3-3-3-3-3-3--4-4-4-4-4-4-4-4-0-0-0-0-0-0-0--------2-2----2-2-|
d-0-0-0-0-0-0-0-0--3-3-3-3-3-3-3-3--4-4-4-4-4-4-4-4-0-0-0-0-0-0-0--------0-0----2-2-|
a------------------1-1-1-1-1-1-1-1--2-2-2-2-2-2-2-2-2-2-2-2-2-2-2---------------0-0-|
e---------------------------------------------------3-3-3-3-3-3-3-------------------|


Outro: (intro x4) 
       
End On:

  C
e---|
b---|
g-5-|
d-5-|
a-3-|
e---|
Tabbed By Michael Fryar , [email protected]



Текст, аккорды и табулатура для песни "Pictures In The Mirror", исполняет "The Living End".
Используемые в песне аккорды можно найти в разделе Как брать аккорды. Аккорды для шестиструнной гитары. Другие песни можно найти на нашем сайте, воспользовавшись алфавитным указателем вверху страницы.


 
Ошибка в тексте? Выделите ошибку и нажмите Ctrl+Enter