Artist: The Living End
Song: One said to the Other
Tabbed by: Dean Parke

Tablature explanation:
h = hammer on
p = pull off
b = bend
r = release bend
/ = slide up or pickslide (///////)
 = slide down


Intro
e|-----------------------------------|
B|-----------------------------------|
G|---7-7-7-7-7-7-7-7-7-7-7-7-7-7-7---|
D|---7-7-7-7-7-7-7-7-7-7-7-7-7-7-7---|
A|---5-5-5-5-5-5-5-5-5-5-5-5-5-5-5---|
E|-----------------------------------|


Chorus x2
e|------------------------------------------------------------|
B|------------------------------------------------------------|
G|------------6-6-6-6------------7-7-7-7------------9-9-9-9---|
D|---7--7-7---6-6-6-6---4--4-4---7-7-7-7---4--4-4---9-9-9-9---|
A|---7--7-7---4-4-4-4---4--4-4---5-5-5-5---4--4-4---7-7-7-7---|
E|---5--5-5-------------2--2-2-------------2--2-2-------------|


Chorus Fill
e|-------------------------------------------------------------|
B|-------------------------------------------------------------|
G|-------------------------------------------------------------|
D|---2-2------2-2----------------------------------------------|
A|---2-2------2-2------4b5r4-2-0-------------------------------|
E|---0-0------0-0----------------4--0--------------------------|


Verse x2
e|-------5----------4----------2----------7----------2----------4-----4--2--0-|
B|-------5----------5----------2----------7----------2----------5-----5--3--2-|
G|-------6----------6----------2----------7----------2----------6-----6--4--2-|
D|-------7----------6----------4----------7----------4----------6-----6--4--2-|
A|-------7------4-4-4------4-4-4------5-5-5------4-4-4------4-4-4-----4--2--0-|
E|---5-5-5--------------------------------------------------------------------|


Pre-Chorus
e|-------------------------------------------|
B|---7--7--7--7--7--7--7--7--7--7--7--7--7---|
G|-------------------------------------------|
D|-------------------------------------------|
A|-------------------------------------------|
E|-------------------------------------------|


Chorus x2

Chorus Fill


Pre-Verse thingy
e|---5--------------4----------2----------7----------2----------4-----4--2--0-|
B|---5--------------5----------2----------7----------2----------5-----5--3--2-|
G|---6--6----------6----------2----------7----------2----------6-----6--4--2-|
D|---7--7----------6----------4----------7----------4----------6-----6--4--2-|
A|---7--7------4-4-4------4-4-4------5-5-5------4-4-4------4-4-4-----4--2--0-|
E|---5------------------------------------------------------------------------|

Verse x2

Pre-Chorus

Chorus

Chorus Fill 2
e|------------------------------------------|
B|------------------------------------------|
G|------------------------------------------|
D|---2-2------2-2------xx-2-xx-3-xx-4-5-6---|
A|---2-2------2-2------xx-2-xx-3-xx-4-5-6---|
E|---0-0------0-0------xx-0-xx-1-xx-2-3-4---|


Solo
e|--------------------------------------------5----------------------------|
B|-------------4b6-4b6-4b6r4p2-------5----5b7---5b7r5--2--3--5--5/7--5-----|
G|---4b6--4-2--------------------4/6---4-----------------------------------|
D|-------------------------------------------------------------------------|
A|-------------------------------------------------------------------------|
E|-------------------------------------------------------------------------|

e|---7b9---7p5-----------------xxx-|--------------|---------------------------|
B|-------------7p5-------------xxx-|------2-----2-|---------------------------|
G|-----------------6p42h4p2---xxx-|--2h4---2h4---|--2h4-2--------------------|
D|-----------------------------xxx-|--------------|--------2h4-2----------2-4-|
A|-----------------------------xxx-|--------------|---------------2-0-2-4-----|
E|-----------------------------xxx-|--------------|---------------------------|
                                     Play Alot  / 

e|-----------------------9h12p9h12-14-12p9---------|
B|-------10h12p10h12p10--------------------12------|
G|---/11--------------------------------------11---|
D|-------------------------------------------------|
A|-------------------------------------------------|
E|-------------------------------------------------|

Pre-Chorus

Verse

Pre-Chorus

Chorus

Chorus Fill 3
e|--------------------------------|
B|--------------------------------|
G|--------------------------------|
D|---2-2--------------------------|
A|---2-2--------------------------|
E|---0-0-//////////////////////---|

Chorus

Chorus Fill 2


Текст, аккорды и табулатура для песни "One Said To The Other", исполняет "The Living End".
Используемые в песне аккорды можно найти в разделе Как брать аккорды. Аккорды для шестиструнной гитары. Другие песни можно найти на нашем сайте, воспользовавшись алфавитным указателем вверху страницы.


 
Ошибка в тексте? Выделите ошибку и нажмите Ctrl+Enter