pm= palm muted
/= slide up
= slide down
^= bend
^^= bend 2 frets
^v= bend up, then bring it back down
h= hammer on
p= pull off


Intro:

e-0-0-0-0-0-0-0-0-0-0-0-0-0-0-------| 
b-3-3-3-3-3-3-3-3-3-3-3-3-3-3-------| 
g-2-2-2-2-2-2-2-2-2-2-2-2-2-2--7---|
d-0-0-0-0-0-0-0-0-0-0-0-0-0-0--7---|
a------------------------------5---|
e-----------------------------------|


Chorus:

e-----5-5---------2-2-2-2--2-2-2-2--------------| 
b-----5-5----6-6--2-2-2-2--3-3-3-3--------------| 
g-----6-6--6-6-6--2-2-2-2--2-2-2-2--------------|
d-7-7-7-7--6-6-6--4-4-4-4--0-0-0-0-4--4--2-2-2--|
a-7-7-7-7--4-4-4--4-4-4-4----------4--4--2-2-2--|
e-5-5-5-5---------2-2-2-2----------2--2--0-0-0--|


e------5-5---------2-2-2-2--2-2-2-2-----------------| 
b------5-5----6-6--2-2-2-2--3-3-3-3-----------------| 
g------6-6--6-6-6--2-2-2-2--2-2-2-2-------6-6-6----|
d-7--7-7-7--6-6-6--4-4-4-4--0-0-0-0-4--4--6-6-6----|
a-7--7-7-7--4-4-4--4-4-4-4----------4--4--4-4-4----|
e-5--5-5-5---------2-2-2-2----------2--2------------|


e---------------------------------| 
b---------------------------------| 
g-----------------------------9---|
d-2-2---2-2-------------------9---|
a-2-2---2-2--5~4h5p4-2p0-----7---|
e-0-0---0-0--------------4p0--0---|




Verse: x2

e-----5------4------2-------------5------4--2--0---------| 
b-----5------5------2-------------5------5--2--0---------| 
g-----6------6------2------7------6------6--2--0----6^v--|
d-----7------6------4------7------7------6--4--2--7------|
a-----7--4-4-4------4--5-5-5------7--4-4-4--4--2--7------|
e-5-5-5---------2-2-2---------5-5-5---------2--0--5------|
  pm.    ...    ...    ...    ...    ...     



Pre-Chorus
e---------------------------| 
b--7-----7-----7-----7------| 
g---------------------------|
d-----4-----4-----4-----4---| repeat as needed
a---------------------------|
e---------------------------|

e-0--0--0---0-0-0-0--0--0--0-0-----| 
b-3--3--3---3-3-3-3--3--3--3-3-----| 
g-2--2--2---2-2-2-2--2--2--2-2-----|
d-0--0--0---0-0-0-0--0--0--0-0-----|
a----------------------------------|
e----------------------------------|


Chorus


Pre-Verse: There's two guitars in this bit.
           The first one plays this:

e----------4------2--------------5------4----9-----5---------| 
b----------5------2-------7------5------5---10--9--5---------| 
g-2--------6------2-------7------6------6---11--9--6---6^v---|
d-2--------6------4-------7------7------6---11--9--7---------|
a-0----4-4-4------4---5-5-5------7--4-4-4/--9---7--7---------|
e---9--------2-2-2----------5-5-5-----------------5---------|
       pm.    ...     ...    ...    ...      

Second guitar plays:

e--5--5--5--5--5--5--5--5-|
b-------------------------|
g-------------------------|
d-------------------------| repeat as needed
a-------------------------|
e-------------------------|


Verse

Pre Chorus

Chorus

Solo:

e------------------------------| 
b------------------------------| 
g------------------------------|
d-2-2-2--3-3-3--4-4-4-5-6------|
a-2-2-2--3-3-3--4-4-4-5-6------|
e-0-0-0--1-1-1--2-2-2-3-4------|
  pm.    ...    ...     


e-----------------------------------5--------|
b-2-------4^-4^-4^v-0--2-------/7---7-7p5----|
g-4^^v-2---------------4^^v-2----------------|
d--------------------------------------------|
a--------------------------------------------|
e--------------------------------------------|

e--0-0-0-0-0-0--7^^-7p5----------------x-x-x-x-x-x--|
b--2-3-5-5/7-5---------7p5-------------x-x-x-x-x-x--|
g--------------------------5p4--------x-x-x-x-x-x--|
d-------------------------------7p4-7--x-x-x-x-x-x--|
a--------------------------------------x-x-x-x-x-x--|
e--------------------------------------x-x-x-x-x-x--|

This next bit is quite fast
e-----------------------------------------------------------|
b------2------2-----2-----2-----2-----2-----2-----2---------|
g--2h4----2/4---2h4---2h4---2h4---2/4---2h4---2h4----4p2----|
d-----------------------------------------------------------|
a-----------------------------------------------------------|
e-----------------------------------------------------------|

e----------------------------------------------------------------12-14p12---------------------|
b---------------------------------------12----12~---12/14-14-14-----------14p12---------------|
g----------------------------/11--14p11----14-----------------------------------11~------11^^v|
d------------------------7-9------------------------------------------------------------------|
a-7h9p7--------------7h9----------------------------------------------------------------------|
e--------97-5--7/9---------------------------------------------------------------------------|

e---------------------------------------------------------------|
b--7-----7-----7-----7------------------------7-----------------|
g---------------------------------------------7-----------------|
d-----4-----4-----4-----4---repeat as needed--7-----------------|
a---------------------------------------------5-----------------|
e------------------------------------------------------------9-|


Verse:

e-----5------4------2-------------5------4--2--0---| 
b-----5------5------2-------------5------5--2--0---| 
g-----6------6------2------7------6------6--2--0---|
d-----7------6------4------7------7------6--4--2---|
a-----7--4-4-4------4--5-5-5------7--4-4-4--4--2---|
e-5-5-5---------2-2-2---------5-5-5---------2--0---|
  pm.    ...    ...    ...    ...    ... 


That is played twice. On the second time, a second guitar 
is playing:

e------------------------------------------------2--0--0--|
b------------------------------------------------2--0--0--|
g-----------------------------7------------------2--0--2--|
d-----7-------6-------4-------7------7-------6---4--2--2--|
a-----7-------6-------4---5-5-5------7-------6---4--2--0--|
e-5-5-5---4-4-4---2-2-2----------5-5-5---4-4-4---2--0-----|
  pm.     ...     ...     ...    ...     ...    

Pre Chorus

Chorus


Outro
E|--------------------------------| 
B|--------------------------------| 
G|----------------------------9--|
D|-2-2---2-2------------------9--|
A|-2-2---2-2--4h5p4-2-0------7--|
E|-0-0---0-0-------------4p0--0---|
   Own!  Own!

e|---------------------------------------------| 
B|---------------------------------------------| 
G|---------------------------------------------|
D|-2-2---2-2---2-2-2--3-3-3--4-4-4-5-6-7-------|
A|-2-2---2-2---2-2-2--3-3-3--4-4-4-5-6-7-------|
E|-0-0---0-0---0-0-0--1-1-1--2-2-2-3-4-5---9--|
               pm.    ...    ...
   Own!  Own! 


Tabbed by Jason Zarpellon
[email protected]
more living end tabs at www.thelivingendtabpage.cjb.net


Текст, аккорды и табулатура для песни "One Sad To The Other", исполняет "The Living End".
Используемые в песне аккорды можно найти в разделе Как брать аккорды. Аккорды для шестиструнной гитары. Другие песни можно найти на нашем сайте, воспользовавшись алфавитным указателем вверху страницы.


 
Ошибка в тексте? Выделите ошибку и нажмите Ctrl+Enter