Tabloid Magazine
The Living End
Modern Artillery


intro1:

e:-7-----7-----7-----7-----7-----7------
B:-7-----7-----7-----7-----7-----7------
G:-9b11--9b11--9b11--9b11--9b11--9b11---
D:--------------------------------------
A:--------------------------------------
E:--------------------------------------


e:-7--------------------------------------------------
B:---7---------------------------------7--------------
G:------9-7----7------------------7-9-----9-7----7--9-
D:----------9-----9--5--5--9----9-------------9-------
A:----------------------------------------------------
E:----------------------------------------------------

e:-7-----7-----7-----7-----7-----7-----
B:-7-----7-----7-----7-----7-----7-----
G:-9b11--9b11--9b11--9b11--9b11--9b11--
D:-------------------------------------
A:-------------------------------------
E:-------------------------------------


e:--7---------------------------------------------------------------------
B:-----7------------------------------------------------------------------
G:-------9-7----7-------7---7-------7---7-------7-------7---7---7---7-----
D:-----------9----9-7-9---9---9-7-9---9---9-7-9---9-7-9---9---9---9---9---
A:------------------------------------------------------------------------
E:------------------------------------------------------------------------

intro2:

e:------------------------------------
B:------------------------------------
G:-x-x-4-4-x-x-4-x-7-7----------------
D:-x-x-4-4-x-x-4-x-7-7-7-7------------
A:-x-x-2-2-x-x-2-x-5-5-7-7-2-2--------
E:---------------------5-5-0-0--------

verse:

e:-------------------------------------------------------
B:-------------------------------------------------------
G:-------------------------------------------------------
D:-x-x-7-x-x-7-x-x-7-x-x-7-7-x-x-7-x-x-7-x-x-7-x-x-7-7---
A:-x-x-7-x-x-7-x-x-7-x-x-7-7-x-x-7-x-x-7-x-x-7-x-x-7-7---
E:-x-x-5-x-x-5-x-x-5-x-x-5-5-x-x-5-x-x-5-x-x-5-x-x-5-5---

								X2
e:-----------------------------------------------------
B:-----------------------------------------------------
G:-x-x-7-x-x-7-x-x-7-x-x-7-7---------------------------
D:-x-x-7-x-x-7-x-x-7-x-x-7-7-x-x-7-x-x-7-x-x-7-x-x-7-7-
A:-x-x-5-x-x-5-x-x-5-x-x-5-5-x-x-7-x-x-7-x-x-7-x-x-7-7-
E:---------------------------x-x-5-x-x-5-x-x-5-x-x-5-5-

pre chorus:

e:-----------------------------------------------------------------
B:-----------------------------------------------------------------
G:-7-7-x-x-x-x-7-7-9-9-x-x-x-x-9-9-11-11-x-x-x-x-11-11-4-4-x-x-x-x-
D:-7-7-x-x-x-x-7-7-9-9-x-x-x-x-9-9-11-11-x-x-x-x-11-11-4-4-x-x-x-x-
A:-5-5-x-x-x-x-5-5-7-7-x-x-x-x-7-7-9--9--x-x-x-x-9--9--2-2-x-x-x-x-
E:-----------------------------------------------------------------

e:----------------------------------
B:----------------------------------
G:--4-4-6-6-6-6-6--------4--4-4-4-4-
D:--4-4-6-6-6-6-6--6-----4--4-4-4-4-
A:--2-2-4-4-4-4-4--6-----2--2-2-2-2-
E:-----------------4----------------

chorus:

e:-0--0----------3-3-3-3-------------
B:-3--3----------3-3-3-3-------------
G:-4--4--3-3-3-3-0-0-0-0-2-2-2-2-----
D:-4--4--4-4-4-4-0-0-0-0-2-2-2-2----- X3
A:-2--2--4-4-4-4-2-2-2-2-0-0-0-0-----
E:-------2-2-2-2-3-3-3-3-------------


e:--------------------------------
B:--------------------------------
G:-4-4-4-4-4-4-4-4-4-7-7-7-7-7-7--  


Текст, аккорды и табулатура для песни "loid Magazine", исполняет "The Living End".
Используемые в песне аккорды можно найти в разделе Как брать аккорды. Аккорды для шестиструнной гитары. Другие песни можно найти на нашем сайте, воспользовавшись алфавитным указателем вверху страницы.


 
Ошибка в тексте? Выделите ошибку и нажмите Ctrl+Enter