- THE LIVING END -
                                   Hellbound
                               Tabbed By Mick Fryar
                            Most Of Solo By Ralp Brown

Ok,
Im really sure that this tab is very correct and close
to the real thing.
I didnt tab all of this, Ralp Brown did the solo.
Thank him at [email protected]
Any corrections just send em to me ok,But I want you to just
remember Im only a teenager!.Ive tried my best,
so here is what I`ve done.


Intro:

e-0--0--0--0---0--0--0--0-----|
b-3--2--1--0---3--2--1--0-----|
g-0--0--0--0---0--0--0--0-----|
d-2--2--2--2---2--2--2--2-----|
a-2--2--2--2---2--2--2--2-----|
e-0--0--0--0---0--0--0--0-----|

e-------------------------------------------------------------|
b--------13--12---------13--12---------13--12---------13--12--|
g-9--12--12--11--9--12--12--11--9--12--12--11--9--12--12--11--|
d-9--12--10--9---9--12--10--9---9--12--10--9---9--12--10--9---|
a-7--10----------7--10----------7--10----------7--10----------|
e-------------------------------------------------------------|

1st Riff:
e----------------------------------|
b-----------5-----------1-1-1------|
g-------0-4---4-----2-4---------2--|
d-2-2-2----------------------3-----| (x2)
a----------------------------------|
e----------------------------------|

2nd Riff:(A)
e-----------3-----------------------------|
b---------3---3~-4-3~-----3-4-4-4-4--5~~--|
g-------3---------------5-----------5-----|
d-5-5-5-----------------------------------| (x2)
a-----------------------------------------|
e-----------------------------------------|

2nd Riff:(B)
e---------------------:---------------:-|
b---------------------:--------13--13-:-|
g-----------5---------:-9--12--12--12-:-|
d-------0-4---4--4~4--:-9--12--10--9--:(x4)
a-2-2-2---------------:-7--10---------:-|
e---------------------:---------------:-|

Repeat all again from 1st Riff

Pre Solo:

   Em         Gm
e-------------------------------------|
b----8---8-----------11-----11--------|
g---9-9----9-------12--12--------12---|
d--9----9-9------12-------12--12------|(x4) mute first 3 times.
a-7----7----7--10-------10--------10--|
e-------------------------------------|
(those notes my not be written out perfectly
so even if you just play over the
chords it should should pretty right.)

e-----------------------------------|
b--------13--12---------13--12------|
g-9--12--12--11--9--12--12--11--9---|
d-9--12--10--9---9--12--10--9---9---|
a-7--10----------7--10----------7---|
e-----------------------------------|


Solo:
Ive only got bits and pieces of the solo.

e-------------------------------------7-10-12-|
b-------0--0--0----------3---3-5-9-~7---------|
g----------------------4---4------------------|
d-4~-4-4--2--0---4--5-------------------------|
a---------------------------------------------|
e---------------------------------------------|

e-7-10-12-7-10-12-7-10-12-7-10-7-10--|
b------------------------------------|
g------------------------------------|
d------------------------------------|
a------------------------------------|
e------------------------------------|

e-------------------------------------------------------|
b-15-15-13-12-13-12p13-10-10h12p10-7p10p7-6h8p6-5h75-5s-|
g-------------------------------------------------------|
d-------------------------------------------------------|
a-------------------------------------------------------|
e-------------------------------------------------------|

e-12^-10------------------------------|
b-12^--------------10h12p10-----------|
g--------12--10h12----------h12--???--|
d-------------------------------------|
a-------------------------------------|
e-------------------------------------|

Then here more stuff is played but we can`t work
that bit out sorry.

The very fast bit of the solo goes,
e-----------------------------------------------|
b-----------------------------------------------|
g-----------------------------------------------|
d-222222-444-555-7777-9999-7777-9999-10-10-10-10|
a-----------------------------------------------|
e-----------------------------------------------|


e------------------------------|
b------------------------------|
g-9999-10-10-10-10-12-12-12-12-|
d------------------------------|
a------------------------------|
e------------------------------|

e-----------------------------------------------------------------|
b-10-12-14-14-14s12-12s8-8s-4-s-2-2-3-4-3-2-0---------------------|
g-------------------------------3-4-5-6-------2-0-3h5-0-3h5-0-3h5-|
d-----------------------------------------------------------------|
a-----------------------------------------------------------------|
e-----------------------------------------------------------------|

e-5-5-5--------------------------------12-14-14-12h-14p-12-14-12-|
b----------------------------------------------------------------|
g------------------------------0-2-4-5---------------------------|
d----------------------0-2-3-4-----------------------------------|
a--------------0-2-3-4-------------------------------------------|
e------0-2-3-4---------------------------------------------------|

e-9-10-13p0-11p0-12p0-11p0-9p0-9-7-....?-|
b----------------------------------------|
g----------------------------------------|
d----------------------------------------|
a----------------------------------------|
e----------------------------------------|
Pause

1st Riff

2nd Riff(both A+B)

End with:
                       Em
e----------------------0---|
b----------------------0---|
g-----------0-2-4~~----0---|
d-0-2-2-2-2------------2---|
a----------------------2---|
e----------------------0-0-|


Текст, аккорды и табулатура для песни "Hellbound", исполняет "The Living End".
Используемые в песне аккорды можно найти в разделе Как брать аккорды. Аккорды для шестиструнной гитары. Другие песни можно найти на нашем сайте, воспользовавшись алфавитным указателем вверху страницы.


 
Ошибка в тексте? Выделите ошибку и нажмите Ctrl+Enter