-The Living End-
                 Growing Up(Falling Down)

  
 Tabbed by Michael [email protected]
 Solo by Nathan [email protected]


This song is in drop D tuning.

ect=keep playing chord as needed
^=bend
[=pull off
h=hammer on
Verse: 

  D                        C                 D
e-------------------------------------------------------|
b-------------------------------------------------------|
g-7-7-7-7-7-7-7-7-7-7------5-5-5-5-5-5-5-----7--7-7--7-7|
d-7-7-7-7-7-7-7-7-7-7------5-5-5-5-5-5-5-----7--7-7--7-7|
a-5-5-5-5-5-5-5-5-5-5-ect--3-3-3-3-3-3-3-ect-5--5-5--5-5|
D-------------------------------------------------------|
 /palm mute..........     /palm mute....   


  G                   D               E
e--------------------------------------------------------|
b--------------------------------------------------------|
g--------------------7-7-7-7-7-7-------------------------|
d--------------------7-7-7-7-7-7-------------------------|
a-5-5-5-5-5-5-5------5-5-5-5-5-5-ect--2-2-2-2-2-2-2------|
D-5-5-5-5-5-5-5-ect-------------------2-2-2-2-2-2-2-ect--|
  / p a l m     m u t e............................

  D
e----------------------------------------|
b----------------------------------------|
g-7-7-7^p5--7-7-7^p5--7-7-7^p5--7-7-7-7--|
d-7-7-------7-7-------7-7-------7-7-7-7--|
a-5-5-------5-5-------5-5-------5-5-5-5--|
D----------------------------------------|Chorus: 

  D                D Maj7            D  A
e-2-2-2-2-2-2-2-2--2-2-2-2-2-2-2-2---2---------|
b-3-3-3-3-3-3-3-3--2-2-2-2-2-2-2-2---3---------|
g-2-2-2-2-2-2-2-2--2-2-2-2-2-2-2-2---2--2------|
d-0-0-0-0-0-0-0-0--0-0-0-0-0-0-0-0---0--2-(x2)-|
a---------------------------------------0------|
D----------------------------------------------|

  B                                     A
e----------------------------------------------------|
b----------------------------------------------------|
g-4---------------4------4-4-4-4-4-4----2-2-2-2-2-2--|
d-4---------------4------4-4-4-4-4-4----2-2-2-2-2-2--|
a-2---------------2------2-2-2-2-2-2ect-0-0-0-0-0-0--|
D----------------------------------------------------|
 Growing Up Yeah!        /palm muteVerse

Chorus


Solo:
e-------------------------------------------|
b-------------------------------------------|
g-11-11-11-11-11-11-9-9-9-7-7-7-9-9-9-11-11-|
d-------------------------------------------|
a-------------------------------------------|
D-------------------------------------------|


e--------------------------------------------------------|
b----------------10----------10-15p14-12-14^15--14-12----|
g-11^12-11-9--11----11----11--------------------------15-|
d----------------------12--------------------------------|
a--------------------------------------------------------|
D--------------------------------------------------------|

 G (x4) A (x4)   (barre chords)

e-14-14-14-14-14-14-12-12-12-10-10-10-12-12-12-15-15-15-|
b-------------------------------------------------------|
g-------------------------------------------------------|
d-------------------------------------------------------|
a-------------------------------------------------------|
D-------------------------------------------------------|


e15-17-15-14-12-------------------------------|
b---------------15-14-12----12----------------|
g------------------------14----14-11-14-------|
d---------------------------------------12----|
a------------------------------------------10-|
D---------------------------------------------|


e-----------------------------------|
b-----------------------------------|
g-----------------------------------|
d-9-10-11-12-11-10-9-------11^12-11-|
a---------------------12------------|
D-----------------------------------|

e--------------------------7-7-7-7--|
b------------------7-7-7-7----------|
g----------7-7-7-7------------------|
d--9-9-9-9--------------------------|
a-----------------------------------|
D-----------------------------------|


Follwed by:

  B                 A
e------------------------------------|
b------------------------------------|
g------------------------------------|
d------------------------------------|(x3)
a-9-9--9---9-9--9---7-7--7---7-7--7--|
D-9-9--9---9-9--9---7-7--7---7-7--7--|
 /p a l m    m u t e...............

  G       A
e------------------|
b------------------|
g------------------|
d------------------|
a-5-5-5-5-7-7-7-7--|
D-5-5-5-5-7-7-7-7--|

 B                 A
e------------------------------------|
b------------------------------------|
g------------------------------------|
d------------------------------------|(x4)
a-9-9--9---9-9--9---7-7--7---7-7--7--|
D-9-9--9---9-9--9---7-7--7---7-7--7--|
 

Verse

Chorus


Outro: 

 B                 A
e------------------------------------|
b------------------------------------|
g------------------------------------|
d------------------------------------|(x4)
a-9-9--9---9-9--9---7-7--7---7-7--7--|
D-9-9--9---9-9--9---7-7--7---7-7--7--|

  B       A       B       A         D
e-------------------------------------2---------2-----------|
b------------------------------------3--------3---3---------|
g-----------------------------------2-------2-------2-------|
d----------------------------------0------0-----------0---s-|
a-9-9-9-9-7-7-7-7-9-9-9-9-7-7-7-7-------------------------s-|
D-9-9-9-9-7-7-7-7-9-9-9-9-7-7-7-7-------------------------s-|


Tabbed By Michael Fryar,[email protected]
icq me at 67053832
Remember to pass on a big thanks to Nathan
for the solo. [email protected]


Текст, аккорды и табулатура для песни "Growing Up Falling Down", исполняет "The Living End".
Используемые в песне аккорды можно найти в разделе Как брать аккорды. Аккорды для шестиструнной гитары. Другие песни можно найти на нашем сайте, воспользовавшись алфавитным указателем вверху страницы.


 
Ошибка в тексте? Выделите ошибку и нажмите Ctrl+Enter