song - carry me home 
artist - the living end 
album - roll on 
tabbed by tom kelly 

dropped D tuning 

this one was a real challenge and there will be some mistakes. 
but its good enough. 

intro 
e|-------------------------------------------------------- 
B|-------------------------------------------------------- 
G|-------------------------------------------------------- 
D|-0----------3-3-5br-3-5-3---------3-3-5-3---------------x2 
A|-0--3-3-5-3---------------3-3-5-3---------3-3-5-3-3-3-5- 
D|-0------------------------------------------------------

e|---------------------------------------------------------- 
B|----------------------------------------------------------
G|----------------------------------------------------------
D|-3-0----------3-3-5br-3-5-3---------3-3-5-3--------------- 
A|-3-0--3-3-5-3---------------3-3-5-3---------3-3-5-3-3-3-5- 
D|-3-0------------------------------------------------------

e|-------------------------------------------------------- 
B|-------------------------------------------------------- 
G|-------------------------------------------------------- 
D|-0----------3-3-5br-3-5-3---5-0-0-6-0-0-7-0-0-6-0-03----
A|-0--3-3-5-3---------------3----------------------------- 
D|-0------------------------------------------------------

e|------------------------ 
B|------------------------ 
G|-------------------5-7-- 
D|-------3-5-5-3-----5-7-- repeat last line as necessary 
A|-5-5-5---------3br-3-5--
D|------------------------- 

verse 
e|------------------------------- 
B|------------------------------- 
G|-7-7------------------------5-- 
D|-7-7------3-3-5-3-3-3-------5-- 
A|-5-5--3-5-------------3br-3-3-- 
D|-------------------------------

e|-------------------------------
B|-------------------------------
G|--------4--------4----2--------
D|--5--2--4--5--2--4----2--------
A|--5--2--2--5--2--2----0--------
D|--5--2-----5--2----------------

pre chorus: 
e|-------------------------------------------------
B|-------------------------------------------------
G|------------------------------------------2-2----
D|--1-1-1--3--0--1-1-1--3--0--1-1-1--3--0---2-2---- 
A|--1-1-1--3--0--1-1-1--3--0--1-1-1--3--0---0-0---- 
D|--1-1-1--3--0--1-1-1--3--0--1-1-1--3--0---------- 

chorus: 
e|----------------------------------------------------------------- 
B|----------------------------------------------------------------- 
G|----------------------------------------------------------------- 
D|--0-3-5--0-3-5--0-3-5-6-5-3-5---5-8-10--5-8-10-5-8-10-11-10-8-10- 
A|--0-3-5--0-3-5--0-3-5-6-5-3-5---5-8-10--5-8-10-5-8-10-11-10-8-10- 
D|--0-3-5--0-3-5--0-3-5-6-5-3-5---5-8-10--5-8-10-5-8-10-11-10-8-10-

second part of chorus: 
e|---------------------------- 
B|---------------------------- 
G|---------------9-7-9-10-9-5- 
D|-7-7-8-8-8-7---9-7-9-10-9-5- x3 
A|-7-7-8-8-8-7---7-5-7--8-7-3- 
D|-7-7-8-8-8-7---------------- 

e|-------------------------------------- 
B|-------------------------------------- 
G|---------10s9s7s5-7-5-7-7-----------7- 
D|-11-11---10s9s7s5-7-5-7-7--6-5-3-0--7- 
A|-11-11----8s7s5s3-5-3-5-5--6-5-3-0--5-
D|-11-11---------------------6-5-3-0---- 

solo: 
e|------------------11----------------------------------
B|---------------11-------------------------------------
G|--7-8-9-----10-------7--7-9-7-9-7-9-7-7-9-7-9-7-9-7-7-
D|--7-8-9--8-------------------------------------------- 
A|--5-6-7-----------------------------------------------
D|------------------------------------------------------

e|---------------------------------------------------- 
B|---------------------------------------------------- 
G|-8-9-10--11--12--13--10-11-12-13--------------15-17- 
D|-8-9-10--11--12--13--10-11-12-13--15-17-15-17------- 
A|---------------------------------------------------- 
D|---------------------------------------------------- 

e|-------------------------------------------------------------
B|-15-17-18-18-18-18-18------8------8------8------8------------
G|-----------------------10b---10b----10b----10b----10br-10---- 
D|-----------------------10b---10b----10b----10b----10br----12- 
A|-------------------------------------------------------------
D|-------------------------------------------------------------

e|----------------------------5-------------------------
B|--10------10------10-----10---8-7-5------------------- 
G|-----12b-----12b-----12b------------7-5--------------- 
D|-----12b-----12b-----12b----------------7-5----------- 
A|--------------------------------------------7-6-5-3-0-
D|------------------------------------------------------ 

outro: 
e|-------------------------------------------------------
B|------------------------------------------------------- 
G|---10s9s7s5-7-5-7-7---------------------------------7-- 
D|---10s9s7s5-7-5-7-7--6-5-3----10-8------8-6---6-----7-- 
A|----8s7s5s3-5-3-5-5--6-5-3------------------7---7-6-5-- 
D|---------------------6-5-3-0-------10s8----------------


Текст, аккорды и табулатура для песни "Carry Me Home", исполняет "The Living End".
Используемые в песне аккорды можно найти в разделе Как брать аккорды. Аккорды для шестиструнной гитары. Другие песни можно найти на нашем сайте, воспользовавшись алфавитным указателем вверху страницы.


 
Ошибка в тексте? Выделите ошибку и нажмите Ctrl+Enter