Living End, All Torn Down
Bill Bower, [email protected]
Living End
All Torn Down
tabbed by Bill Bower


INTRO 

E|----------------------------------------------------
B|----------5----------------5----------------5------ 
G|------6-----6----------6-----6----------6-----6-----
D|----6---6-----6------6---6-----6------6---6-----6---
A|-4--------------------------------------------------
E|-----------------0-5--------------0-4--------------4


E|-----------------
B|----------4------
G|------6-----5----
D|----5---5-----6--
A|-----------------
E|--4--------------

x4


chords=  

Verse
c#m  A
c#m  A

Chorous
A   B    E
all torn down

X3 then back to the verse

Chorous 2
A   B    E   x2
all torn down
A   B 
all torn
C#m                    A               B   
 you've got no reason ,  you've got no reason

repeat a few times


bridge

BM                      G
you've got no reason   you've got no reason   x2


i cant remember exactly but i think you go back to the intro and slow down to a stop




Текст, аккорды и табулатура для песни "All Torn Down", исполняет "The Living End".
Используемые в песне аккорды можно найти в разделе Как брать аккорды. Аккорды для шестиструнной гитары. Другие песни можно найти на нашем сайте, воспользовавшись алфавитным указателем вверху страницы.


 
Ошибка в тексте? Выделите ошибку и нажмите Ctrl+Enter