E||------7----5-7--10--8--7--|--5--3--5----5-8--13--10-8-6---|
B||---------8----------------|-----------6-----------------8-|
G||--------------------------|-------------------------------|
D||--------------------------|-------------------------------|
A||--------------------------|-------------------------------|
E||--------------------------|-------------------------------|
 
E|--------------6--8--6-4-3-1-|-----1--5----------0----|
B|-9--8--9--8-9---------------|--4-----------2---------|
G|----------------------------|-----------2----------2-|
D|----------------------------|------------------------|
A|----------------------------|------------------------|
E|----------------------------|------------------------|

E|----0-------------0----|
B|-2----------2----------|
G|---------2-----2-----2-|
D|-----------------------|
A|-----------------------|
E|-----------------------|


Текст, аккорды и табулатура для песни "Light My Fire", исполняет "The Doors".
Используемые в песне аккорды можно найти в разделе Как брать аккорды. Аккорды для шестиструнной гитары. Другие песни можно найти на нашем сайте, воспользовавшись алфавитным указателем вверху страницы.


 
Ошибка в тексте? Выделите ошибку и нажмите Ctrl+Enter