T E S T A M E N T:

N I G H T M A R E (Coming Back To You)

Lyrics by Alex Skolnick
Music by Testament
Vocal Arrangements by Chuck Billy


Tabbed by Juhani Moilanen
E-mail:[email protected]


(A) Intro:

Guitars 1 & 2

    P.M.---------------------------------------------------------------------|
------------------------------|-------------------------------------------------|
------------------------------|-------------------------------------------------|
------------------------------|-------------------------------------------------|
------------------------------|---------------------------------------------2---|
---2----2--5--2--1--4-----2---|---2--5--2--4--1-----2-----2--5--2--4--1-----2---|
---0-------------------3--0---|------------------3--0--------------------3--0---|



(B) Verse:(Figure 1)
 
       P.M.-----------------|                       P.M.----------------|
------------------------------------------------|-----------------------------------------------------------
------------------------------------------------|-----------------------------------------------------------
------------------------------------------------|-----------------------------------------------------------
---(2)------------------------------------------|-----------------------------------------------------------
---(2)-------------------------5p3----------2---|--------------------------5--8p5--7p4------2---------------
---(0)---0--0--0--0--0--0--0---------6--3---0---|----0--0--0--0--0--0--0-----------------6--0---------------


        P.M.----------------|                       P.M.----------------|
------------------------------------------------|-----------------------------------------------------------
------------------------------------------------|-----------------------------------------------------------
------------------------------------------------|-----------------------------------------------------------
------------------------------------------------|-----------------------------------------------------------
---(2)------------------------1p0------------2--|---------------------------2--5p2-----4p1-------2----------
---(0)---0--0--0--0--0--0--0--------3----3---0--|----0--0--0--0--0--0--0---------------------3---0----------


        P.M.----------------|                        P.M.----------------|
------------------------------------------------|-----------------------------------------------------------
------------------------------------------------|-----------------------------------------------------------
------------------------------------------------|----------------------------7------------------------------
------------------------------------------------|----------------------------7-------3-------2--------------
----(2)------------------------5p3------------2-|----------------------------5-------3-------2--------------
----(0)--0--0--0--0--0--0--0---------6--3-----0-|-----0--0--0--0--0--0--0------------1-------0--------------



        P.M.----------------|                         P.M.----------------|
-------------------------------------------------|----------------------------------------------------------
-------------------------------------------------|----------------------------------------------------------
-------------------------------------------------|----------------------------------------------------------
-------------------------------------------------|----------------------------7-----------------------------
----(2)-------------------------1p0----------2---|----------------------------5--------3--------2-----------
----(0)--0--0--0--0--0--0--0----------3--3---0---|-----0--0--0--0--0--0--0-------------1--------0-----------

End of figure 1.

(C) Chorus:

---------------------------------|----------------------------------|--------------------------------------
---------------------------------|----------------------------------|--------------------------------------
---------------------------------|------------2----4----------------|--------------------------------------
---(2)-----------5----------4----|------------2----4-----------2----|---9--------7-----------5-------------
---(2)-----------5----------4----|-----------------2----------------|---7--------5-----------3-------------
---(0)-----------3----------2----|----------------------------------|--------------------------------------


---------------------------------|-------------------------------------------------------------------------
---------------------------------|-------------------------------------------------------------------------
---------------------------------|-------------------------------------------------------------------------
---5--------------4--------------|---2------------------5--------------------4--(4)-------------------4----
---3--------------2--------------|---2------------------5--------------------4--(4)-------------------2----
-----------------------12-------|---0---0--0--0--0--0--3----3--3--3--3--3---2--(2)-2--2--2--2--2----------



Guitars 1 & 2 2nd & 3rd times only
|---------------------------------|----------------------------------|
|---------------------------------|----------------------------------|
|---------------------------------|----------------------------------|
|---9----------7----------5-------|---------4------------------------|
|---7----------5----------3-------|---------2--------5----5------2---|
|---------------------------------|-----2------------------------0---|
|
|---------------------------------|----------------------------------|
|---5----------7----------8-------|---------12-----------------------|
|---------------------------------|----------------------------------|
|---2----------4----------5-------|---------9------------------------|
|---------------------------------|----------------------------------|
|---------------------------------|----------------------------------|


Guitar 1 & 2 play fig. 1



Guitar 2 Cont. Fig.1
Guitar 1

     P.M.-----------------|                                          b+1
------------------------------------------------|----------------------------------------------------------
------------------------------------------------|--------------------3-----3p0-----------------------------
------------------------------------------------|--------------------------------3---3p2p0-----------------
------------------------------------------------|--------------------------------------------2-------------
--(2)------------------------5p3------------2---|----------------------------------------------------------
--(0)--0--0--0--0--0--0--0----------6---3---0---|---0--0--0--0--0------------------------------------------

______________________
|2.
Guitar 1
----------------------|---------------------|--------------------|---X------------------------------------
---(12)---------------|------108------|-5------------------|-----------------------------------------
----------------------|---------------------|--------------------|-----------------------------------------
---(9)----------------|-------77------|-2------------------|----------------------------14-----------
----------------------|---------------------|--------------------|----------------------------14-----------
----------------------|---------------------|--------------------|-----------------------------------------

Guitar 2                                       ~~~~~~~~  ~~~~~~~~~   ~~~  ~~~
----------------------|---------------------|--------------------|-----------------------------------------
----------------------|---------------------|--------------------|-----------------------------------------
----------------------|-----X--9h12p9--9h12|p9---------9--------|--9----9----9----------------------------
----9-----------------|--9--X--------------|--------------------|-----------------------------9-----------
----7-----------------|--7------------------|--------------------|-----------------------------7-----------
----------------------|---------------------|--------------------|-----------------------15----------------


|----------------------------------------------|------------------------------------------------------------
|----------------------------------------------|------------------------------------------------------------
|--------------------15----1514-----12--------|-----------------------15------1514------12----------------
|--(14)---12---14----15----1514-----12----12--|---14--12---1412------15------1514------12----------------
|--(14)---12---14------------------------------|---14--12---1412-------------------------------------------
|----------------------------------------------|------------------------------------------------------------
|
|
|----------------------------------------------|------------------------------------------------------------
|----------------------------------------------|------------------------------------------------------------
|----------------------------------------------|------------------------------------------------------------
|----9-----7-----9----8------87------5--5-----|----9----7----97--------8-------87-------5----------------
|----7-----5-----7----8------87---------------|----7----5----75--------8-------87-------5----------------
|----------------------------------------------|------------------------------------------------------------


--------------------------------------------------|---------------------------------
--------------------------------------------------|---------------------------------
--------------------------15-----1514-----12-----|---------------------------------
---14---12-----1412------15-----1514-----12-----|----14-------12------1412-------
---14---12-----1412------------------------------|----14-------12------1412-------
--------------------------------------------------|---------------------------------


--------------------------------------------------|---------------------------------
--------------------------------------------------|---------------------------------
--------------------------------------------------|---------------------------------
---9----5-------97--------8------87-----5---5---|-----9---------7-------97-------
---7----7-------75--------8------87-------------|-----7---------5-------75-------
--------------------------------------------------|---------------------------------



Guitar Solo:

  E5                                                    G5

--19-17-14-19-17-15-14-19-17-14-19-17-14-19-17-14-19-17-14-19-17-14-17-15-14--|
------------------------------------------------------------------------------|
------------------------------------------------------------------------------|
------------------------------------------------------------------------------|
------------------------------------------------------------------------------|
------------------------------------------------------------------------------|

  E5                                                     G5

--17-15-14-17-15-12-15-14-12-14-12-11-19-17-14-17-15-14-12-15-14-12-14-12-11--|
------------------------------------------------------------------------------|
------------------------------------------------------------------------------|
------------------------------------------------------------------------------|
------------------------------------------------------------------------------|
------------------------------------------------------------------------------|

  E5                                                          G5 

--19-17-15-14-17-15-14-12-15-14-12-11-14-12-1-12-11-9p7--11-9-7-8-5-7----5----|
------------------------------------------------------------------------------|
------------------------------------------------------------------------------|
------------------------------------------------------------------------------|
------------------------------------------------------------------------------|
------------------------------------------------------------------------------|


  E5                                   G5                         E5                                G5

--------------------------------------------------------------------------------------------------------------|
--8-8-8-7-8-7-5-7-5-4-5-4-4-4-4-----------------------------------12-0--0--0--0--12-0-0-0-12--0-0-0-12-0-0-0--|
--------------------------------5p4-4-4-4-4---4--5---4--4--4--4-----------------------------------------------|
--------------------------------------------------------------------------------------------------------------|
--------------------------------------------------------------------------------------------------------------|
--------------------------------------------------------------------------------------------------------------|

   E5                                         G5          E5                             
                                           b+1
                                           Lower note
-------------------------------------------------------|--12p15-----------------------------------------------|
---------------------------------------15--15---12-----|--------12-12-12-15p12----12-15-12----12-12-15p12-----|
---------9-12-9-11-14-11-14-11-15-12---15--14------14--|-----------------------14----------14-------------14--|
---9h11------------------------------------------------|------------------------------------------------------|
-------------------------------------------------------|------------------------------------------------------|
-------------------------------------------------------|------------------------------------------------------|

           G5                     E5                                                    G5

                  T      T        T      T      T      T      T      T      T                              
-------------------------------|------------------------------------------------------------------------------|
--12-15p12----15--17p15--17p15-|--17p15--17p15--17p14--17p14--17p14--17p12--17p108---------------------------|
-----------14------------------|---------------------------------------------------------8-9---12-------------|
-------------------------------|------------------------------------------------------------------------------|
-------------------------------|------------------------------------------------------------------------------|
-------------------------------|------------------------------------------------------------------------------|


(guitar 2 plays C-figure (Chorus))

                                                  b+1       pb+1 r       ~~~~~~~
-----------------------------------------------|--------------------------------------|
-------------------------------------------15--|-------15-----------------------------|
--(12)---------------------12--------------14--|--14--------14--(14)p12---------------|
--------14--12--14p12----------14--12----------|--------------------------------------|
-----------------------14--------------14------|------------------------14------(14)-|
-----------------------------------------------|--------------------------------------|

                                                        b+Ѕ                   ~~~~~~~~~~~~~~~~~~           
------------------------------------------------------------------------------------------------------------|
------------------------------------------------------------------------------------------------------------|
--11-9h11p9----9h12p9-------9h11p9----9h11p9----9p11-9--11----(11)--9--11p9--8------------------------------|
------------10--------10-10--------10--------10---------------------------------------------------9---------|
------------------------------------------------------------------------------------------------------------|
------------------------------------------------------------------------------------------------------------|

             b+Ѕ  r                                                               ~~~~~~~
----------------------------------------------------|-------------------------------------------------------|
----------------------------------------------------|-------------------------------------------------------|
---------12-14---(14)p12------14p12------12--14p12--|--14/16--14---16---14--16--16--------16----------------|
--12/14-------------------14---------14-------------|-------------------------------------------16----------|
----------------------------------------------------|-------------------------------------------------------|
----------------------------------------------------|-------------------------------------------------------|

------------------------------------------------------------------------------------------------------------|
------------------------------------------------------------------------------------------------------------|
--------16-21p16----------16-21p16----------14-19p14---------14-19p14----------12-17p12----------11-16p11---|
-----17----------17----17----------17----16----------16---16----------16----14----------14----12----------12|
--19----------------19----------------17---------------17----------------15----------------14---------------|
------------------------------------------------------------------------------------------------------------|


                                        (Guitar 2 plays A-figure (intro))
                                              ~~~~~       b+1    r                     b+1  r         b+1 (lowernote)
-------------------------------------|--------------------15-----(15)--12-----------|-----------------------|
-------------------------------------|----------------------------------------15p12-|-----------------15----|
--12----------12---------------------|----------------------------------------------|--14---(14)--12--14----|
---------14-------1412-14p12-14p12--|--14--14-------0------------------------------|-----------------------|
-------------------------------------|----------------------------------------------|-----------------------|
-------------------------------------|----------------------------------------------|-----------------------|

 
                                                    (We got to fight       we got to try...)
                                                      P.M.----------------|
---------------------------------------------------|--------------------------------------------------------|
---------------------------------------------------|--------------------------------------------------------|
---------------------------------------------------|--------------------------------------------------------|
------------------------------------------------2--|--------------------------------------------------------|
---2---5--8--5--7--4-----2----5--8--5--7--4-----2--|-------------------------5p3-----------------2----------|
--(0)-----------------6--0-------------------6--0--|---0--0--0--0--0--0--0------------6---3------0----------|


Guitars 1 and 2 continues Fig. 1
(when all is gone, we'll know the reason why.
 to kill the enemy we will win the wars
 to find the place our life was before, it's a night...)



Outro:

       P.M.--------------------------------------------------------------|
---------------------------------------------------|--------------------------------------------------------|
---------------------------------------------------|--------------------------------------------------------|
---------------------------------------------------|--------------------------------------------------------|
---------------------------------------------------|-------------------------9-----7----9----(9)-----------|
---(2)--5--8--5--7--4-----2---5--8--7--5--4-----2--|----5--8--5--7--4--------7-----5----7----(7)-----------|
---(0)-----------------6--0------------------6--0--|--------------------0-----------------------------------|

       P.M.--------------------------------------------------------------|
---------------------------------------------------|--------------------------------------------------------|
---------------------------------------------------|--------------------------------------------------------|
---------------------------------------------------|--------------------------------------------------------|
---------------------------------------------------|-------------------------9------7----9----(9)----------|
----2---2--5--2--4--1-----2---2--5--2--6--1-----2--|----2--5--2--6--1--------7------5----7----(7)----------|
----0------------------3--0------------------3--0--|--------------------0-----------------------------------|


Текст, аккорды и табулатура для песни "Nightmare", исполняет "Testament".
Используемые в песне аккорды можно найти в разделе Как брать аккорды. Аккорды для шестиструнной гитары. Другие песни можно найти на нашем сайте, воспользовавшись алфавитным указателем вверху страницы.


Слушать онлайн Nightmare


TestamentNightmare на Яндекс.Музыке


 
Ошибка в тексте? Выделите ошибку и нажмите Ctrl+Enter