-Downloaded from Fatal's Testament page-
         -Http://Testament.cjb.net-
-email: fatal@netc.pt-


Artist:TestAmenT
Title:Confusion Fusion
Album:Practice What You Preach
Transcribed by:Eric Vanover
Email:[email protected]

hbr-half bend then release
.-palm mute

*-The last 3 times you play this, substitute the chord at the end

This is pretty much it, just repeat when necessary.

Fade in


    Guitar 1          Fig.A                                         
E------------|-----|------------------------------------------------
B------------|-----|------------------------------------------------
G------------|-----|------------------------11---------------------
D------------|-----|----------------10--13--------------------------
A------------|-----|---------9--12-----------------------9--12------
E---------2--|--8--|--8--11-----------------------8--11-------------
                .     .  .   .  .   .   .         .  .   .  .       

    Guitar 2                                                        
E------------|-----|------------------------------------------------
B------------|-----|-------------------------13--------------------
G------------|-----|-----------------11--14-------------------------
D------------|-----|---------10--13-----------------------10--13----
A---3--------|--9--|--9--12------------------------9--12------------
E------------|-----|------------------------------------------------
                .     .  .   .   .   .   .         .  .   .   .     

    Guitar 1                                                        
E-------------------------------------------------------------------
B-------------------------------------------10--13--10--------------
G-----------11-------------------------11--------------11----------
D---10--13----------------------10--13----------------------13------
A------------------------9--12--------------------------------------
E-----------------8--11---------------------------------------------
    .   .         .  .   .  .   .   .   .                           

    Guitar 2                                                        
E--------------------------------------------11--14--11-------------
B-----------13--------------------------13--------------13---------
G---11--14-----------------------11--14----------------------14-----
D------------------------10--13-------------------------------------
A-----------------9--12---------------------------------------------
E-------------------------------------------------------------------
    .   .         .  .   .   .   .   .   .                          

    Guitar 1      Fig.Ax2                                           
E--------------|--------------|-------------------------------------
B--------------|--------------|----------------------------10-------
G--------------|--------------|------------------------11-----------
D---10---------|--------------|----------------10--13---------------
A-------12--9--|--------------|---------9--12-----------------------
E--------------|--------------|--8--11------------------------------
                                 .  .   .  .   .   .   .            

    Guitar 2                                                        
E---------------|--------------|-----------------------------11-----
B---------------|--------------|-------------------------13---------
G---11----------|--------------|-----------------11--14-------------
D-------13--10--|--------------|---------10--13---------------------
A---------------|--------------|--9--12-----------------------------
E---------------|--------------|------------------------------------
                                  .  .   .   .   .   .   .          

    Guitar 1                                                        
E--------------------------|----------------------------------------
B---13--10-----------------|--------------------9-------------------
G-----------11-------------|-----------7--------8--------7----------
D---------------13--10-----|--6--------7--------6--------7----------
A-----------------------12|--6--------5-----------------5----------
E--------------------------|--4-------------------------------------
                                                                    

    Guitar 2                                                        
E---14--11-----------------|----------------------------------------
B-----------13-------------|--------------------------7-----8-------
G---------------14--11-----|-----------------5-----8-----9----------
D-----------------------13|--------4-----7-----6-------------------
A--------------------------|-----6-----5----------------------------
E--------------------------|--4-------------------------------------
                              .  .     .  .     .  .                

    Guitar 1                                                        
E-------------------------------------------------------------------
B---------------------------------------------------------9---------
G---------------7--7--7--7--7--7--7--7-----------7--------8---------
D---------------7--7--7--7--7--7--7--7--6--------7--------6---------
A---------------5--5--5--5--5--5--5--5--6--------5------------------
E---------------------------------------4---------------------------
                .  .  .  .  .  .  .  .                              

    Guitar 2                                                        
E------10--|--------------------------------------------------------
B----------|--------------------------------------------------------
G----------|--------------------------------------------5-----8-----
D----------|-----------------------------------4-----7-----6--------
A----------|--------------------------------6-----5-----------------
E----------|-----------------------------4--------------------------
                                         .  .     .  .     .  .     

    Guitar 1             hbr  hbr                                   
E-------------------------------------------|-----------------------
B-------------------------------------------|-----------------------
G------7------------------------------------|-----------------------
D------7------------------------------------|-----------------------
A------5--------8--------(8)--(8)-----------|--6--6--6--6--6--6-----
E-------------------------------------------|--6--6--6--6--6--6-----
                                               .  .  .  .  .  .     

    Guitar 2     *                                                  
E------------10--8---------------------------|----------------------
B---7-----8------9---------------------------|----------------------
G------9---------10--------------------------|--------8-----8-------
D--------------------------------------------|-----8-----8-----8----
A--------------------------------------------|--6-------------------
E--------------------------------------------|----------------------
                                                .  .  .  .  .  .    

    Guitar 1                                                        
E------------------|-----------------------------------|------------
B------------------|-----------------------------------|------------
G------------------|-----------------------------------|------------
D------------------|-----------------------------------|------------
A---7-----4-----4--|--6--6--6--6--6--6--7-----4-----4--|--6--6------
E---7-----4-----4--|--6--6--6--6--6--6--7-----4-----4--|--6--6------
    .     .     .        .  .  .  .  .  .     .              .      

    Guitar 2                                                        
E-------------------------------------------------------------------
B-------------------------------------------------------------------
G---------7-----7-----------8-----8-----------7-----7---------------
D------6-----6-----6-----8-----8-----8-----6-----6-----6-----8------
A---7-----------------6-----------------7-----------------6---------
E-------------------------------------------------------------------
    .  .     .     .  .  .     .     .  .  .     .     .  .  .      

    Guitar 1                      Both Guitars                      
E------------------------------|------------------------------------
B------------------------------|------------------------------------
G------------------------------|--8-----9-----10-----11-----12------
D------------------------------|--8-----9-----10-----11-----12------
A---6--6--6--6--7-----4-----4--|--6-----7-----8------9------10------
E---6--6--6--6--7-----4-----4--|------------------------------------
    .  .  .  .        .     .                                       

    Guitar 2                                                        
E-------------------------------------------------------------------
B-------------------------------------------------------------------
G---8-----8-----------7-----7---------------------------------------
D------8-----8-----6-----6-----6------------------------------------
A---------------7---------------------------------------------------
E-------------------------------------------------------------------
       .     .  .  .     .     .                                    

                                                                    
E----------|--------------------------------------------------------
B----------|--------------------------------------------------------
G---15----|-----------------4-----------------7--------------------
D---15----|--------6-----6-----------6-----6-----------6-----6-----
A---13----|-----6-----5-----------6-----7-----------6-----7--------
E----------|--4-----------------4-----------------4-----------------
              .  .     .  .     .  .     .  .     .  .     .  .     

                                                                    
E-------------------------------------------------------------------
B-------------------------------------------------------------------
G---4-----------------6-----------------4---------------------------
D------------6-----------------6-----6-----------6-----9p6----------
A---------6-----6--5--------6-----5-----------6-----7----------6----
E------4-----------------4-----------------4----------------4-------
       .  .     .  .     .  .     .  .     .  .     .       .  .    

                                                       Guitar 1     
E------------------------------------|------------------------------
B------------------------------------|------------------------------
G------------7-----------------------|-----------------4------------
D---6-----6-----------6-----5--8--6--|--6--6--6--6--6--4-----4------
A------7-----------6-----6-----------|--6--6--6--6--6--2-----4------
E---------------4--------------------|--4--4--4--4--4--------2------
       .  .     .  .     .              .  .  .  .  .               

                                                       Guitar 2     
E------------------------------------|------------------------------
B------------------------------------|------------------------------
G------------------------------------|------------------------------
D------------------------------------|--6--6--6--6--6---------------
A------------------------------------|--6--6--6--6--6--2------------
E------------------------------------|--4--4--4--4--4--------2------
                                        .  .  .  .  .               

    Guitar 1                                                        
E-------------------------------------------------------------------
B-------------------------------------------------------------------
G---------------------------4---------------------------------------
D---5-----6--6--6--6--6--6--4-----5-----2-----6--6--6--6--6--6------
A---5-----6--6--6--6--6--6--2-----5-----2-----6--6--6--6--6--6------
E---3-----4--4--4--4--4--4--------3-----0-----4--4--4--4--4--4------
             .  .  .  .  .  .     .           .  .  .  .  .  .      

    Guitar 2                                                        
E-------------------------------------------------------------------
B-------------------------------------------------------------------
G-------------------------------------------------------------------
D------------6--6--6--6--6--------------------6--6--6--6--6--6------
A------------6--6--6--6--6--2-----------------6--6--6--6--6--6------
E---3-----4--4--4--4--4--4--------3-----0-----4--4--4--4--4--4------
             .  .  .  .  .                    .  .  .  .  .  .      

    Guitar 1                                                        
E------------------------------------------------------|------------
B------------------------------------------------------|------------
G---4-----------------------------------6-----9-----8--|------------
D---4-----4-----5-----6--6--6--6--6--6--6-----9-----8--|------------
A---2-----4-----5-----6--6--6--6--6--6--4-----7-----6--|------------
E---------2-----3-----4--4--4--4--4--4-----------------|------------
                         .  .  .  .  .                              

    Guitar 2                                              *         
E------------------------------------------------------|--11--|-----
B------------------------------------------------------|--9---|-----
G------------------------------------------------------|--10--|-----
D------------------------6--6--6--6--6-----------------|------|-----
A---2--------------------6--6--6--6--6--4-----7-----6--|------|-----
E---------2-----3-----4--4--4--4--4--4-----------------|------|-----
                         .  .  .  .  .                              



====================================================================
==          Created with a demo version of BUCKET O' TAB          ==
==            tablature creation software for Windows             ==
==                 http://www.his.com/~gse/bucket                 ==
====================================================================


Текст, аккорды и табулатура для песни "Fusion", исполняет "Testament".
Используемые в песне аккорды можно найти в разделе Как брать аккорды. Аккорды для шестиструнной гитары. Другие песни можно найти на нашем сайте, воспользовавшись алфавитным указателем вверху страницы.


Слушать онлайн Confusion Fusion


TestamentConfusion Fusion на Яндекс.Музыке


 
Ошибка в тексте? Выделите ошибку и нажмите Ctrl+Enter