Artist: Testament
Song:Demonic Refusal
Album: Demonic
Interpreted by [LoTD]Morpheus
email: [email protected]
AIM Screen Name: LoTD4LiFe

email me or IM me and request some tabs


A.

G||--------------------------|--------------------------|
D||--------------------------|--------------------------|
A||--------------------------|--------------------------|
D||--0--0--0--0--0--0--0--0--|--6--6--6--6--6--6--6--6--|



|--------------------------|---------------------------||
|--------------------------|--------------------------*||
|--------------------------|--3--3--3--3--3--3--3--3--*||
|--0--0--0--0--0--0--0--0--|---------------------------||


B.
|--------------------------|-----------------------|
|--------------------------|-----------------------|
|--3--3--3--3--3--3--3--3--|--3--------6--6--6--6--|
|--------------------------|-----------------------|


C. Verse
|---------------------------|
|*--------------------------|
|*--------------------------|
|---0--0--0--0--0--0--0--0--|

|----------------------------|--------------------------|
|----------------------------|--------------------------|
|--3--------4------0------0--|--------------------------|
|-----0--0-----0-0----0-0----|--0--0--0--0--0--0--0--0--|


                             D. Verse 2
|---------------------------||------------------------------||
|--------------------------*||*----------------------------*||
|--3--------4--------------*||*----------------------------*||
|-----0--0-----0--4--3--1---||---x-x-0--x-x-0--0--4--3--1---||


E. Intro to Chorus
|----------------------------||----------------------------||
|*--------------------------*||*--------------------------*||
|*--------------------------*||*--3--3--3--3--3--3--3--3--*||
|---4--4--4--4--4--4--4--4---||----------------------------||


F. Chorus (This is a weird rythym, give it your best on this one,
for best results listen to how Testament plays it)
|-------------------------|-----------------------------||
|*------------------------|----------------------------*||
|*--4---------------4-----|--4-------------------------*||
|-------5---3---5------5--|-----5--3---5---x--x--x--x---||


G.                                                3x
|------------------------||------------------------||-----------------------|
|------------------------||*----------------------*||-----------------------|
|--4-------------4-------||*--4---------4---------*||--4--------6--6--6--6--|
|-----5--3---5-------5---||----------------5--5----||-----------------------|


H.
|---------------------------|---------------------------||
|*--------------------------|--------------------------*||
|*--------------------------|--------------------------*||
|---6665556665--6--5--3--5--|--6665556665--6--5--6--5---||


I. The guitars are playing trills here, just play the first note of each 
trill)
|-----------------------|-----------------------|-----------------------------|
|-----------------------|-----------------------|-----------------------------|
|--5----4----3----3--2--|--5----4----3----3--2--|-----------------------------|
|-----------------------|-----------------------|--0-0-0-0-0-0-4--3--1--3--4--|


J.
|-----------------------------||
|-----------------------------||
|-----------------------------||
|--0-0-0-0-0-0-4--3--1--3--4--||

Return to Verse.

Riff pattern:  ABCDDCCDDCCDDEFFFGCCCDDEFFFGHI(first bar 1x,second bar
3x),JJJJJJJJJJJJCCCDDEFFFFFFFGAB(first bar 2x, second bar 1x)


Текст, аккорды и табулатура для песни "Demonic Refusal", исполняет "Testament".
Используемые в песне аккорды можно найти в разделе Как брать аккорды. Аккорды для шестиструнной гитары. Другие песни можно найти на нашем сайте, воспользовавшись алфавитным указателем вверху страницы.


 
Ошибка в тексте? Выделите ошибку и нажмите Ctrl+Enter