INTRO & VERSE
1:-------------------------------------|
2:-------------------------------------|
3:-------------------------------------|
4:-------------------------------------|
5:|9-9-9-9---9---7-9-109-7-9-9-9-9---9---7-7-9-9-7-|
6:|7-7-7-7---7---7-7-7-7-7-6-6-6-6---6---6-6-6-6-6-|

1:-------------------------------------|
2:-------------------------------------|
3:|2-2-2-2---2---2-2-2-2-2-1-1-1-1---1---1-1-1-1-1-|
4:-------------------------------------|

(INTRO & VERSE) END
1:-------------------------------------|
2:-------------------------------------|
3:-------------------------------------|
4:-------------------------------------|
5:|9-9-9-9---9---7-9-109-7-9-9-9-9~~~~~~~~~~~~~~~~~|
6:|7-7-7-7---7---7-7-7-7-7-6-6-6-6~~~~~~~~~~~~~~~~~|

1:-------------------------------------|
2:-------------------------------------|
3:|2-2-2-2---2---2-2-2-2-2-1-1-1-1~~~~~~~~~~~~~~~~~|
4:-------------------------------------|

CHORUS
1:-------------------------------------|
2:-------------------------------------|
3:-------------------------------------|
4:|4-----4-----4-----4-----4-----4-----4-----4-----|
5:|--1-----1-----1-----1-----1-----1-----1-----1---|
6:|----0-----0-----0-----0-----0-----0-----0-----0-|

1:-------------------------------------|
2:-------------------------------------|
3:|2-2-2-5---5-------0-0-1-2-2-2-5---5-------0-0-1-|
4:---2-2---------------------2-2-------|

SOLO
1:-------------------------------------|
2:-------------------------------------|
3:-------------------------------------|
4:|4-4-4-7---7---6-6-5-5-5-4-4-4-7---7---6-6-5-5-5-|
5:|2-2-2-5---5---4-4-3-3-3-2-2-2-5---5---4-4-3-3-3-|
6:-------------------------------------|

1:-------------------------------------|
2:-------------------------------------|
3:|2-2-2-5---5-------0-0-1-2-2-2-5---5-------0-0-1-|
4:---2-2---------------------2-2-------|

END
1:-------------------------------------|
2:-------------------------------------|
3:-------------------------------------|
4:|4-4-4-4-4-4-4-4-4-4-4-4-4-4-4-4-4-4-4-4-4-4-4-4-|
5:|2-2-2-2-2-2-2-2-2-2-2-2-2-2-2-2-2-2-2-2-2-2-2-2-|
6:-------------------------------------|

1:-------------------------------------|
2:-------------------------------------|
3:|2-2-2-5---5-------0-0-1-2-2-2-5---5-------0-0-1-|
4:---2-2---------------------2-2-------|




PLAY ORDER

INTRO  x3 -> INTRO END
VERSE  x5 -> VERSE END
CHORUS x2
VERSE  x5 -> VERSE END
CHORUS x4
VERSE  x5 -> VERSE END
CHORUS x4
SOLO   x4
END    x4

Кто из нас прав
знают лишь окна в доме,
где никогда не спал,
чтоб ни облиться потом
и там где просто был
и никогда не пел

Но Солнце ждет, чтобы я горел...

Кто из нас мертв
это не знают
даже собаки на местах
в глаза смотреть, пугаясь
я с ними бы бродил
и свет Луны нас грел

Но Солнце ждет, чтобы я горел...

Кто из нас пьян
никто не знает
где бы он ни был
стоит ли пить
никто не знает
где бы он ни был
есть ли предел
никто не знает
знаю лишь я, что 

Солнце ждет, чтобы я горел...

Солнце...

Никто не знает...


Текст, аккорды и табулатура для песни "Солнце", исполняет "TequilaJazzz".
Используемые в песне аккорды можно найти в разделе Как брать аккорды. Аккорды для шестиструнной гитары. Другие песни можно найти на нашем сайте, воспользовавшись алфавитным указателем вверху страницы.


Слушать онлайн Солнце


TequilajazzzСолнце на Яндекс.Музыке


 
Ошибка в тексте? Выделите ошибку и нажмите Ctrl+Enter