Tribute by Tenacious D Words and Music transcribed by JohnnyWu2
Album Version

     Am
e----------------------------------------------
b--------------------1--1--1--1h3p1--0h1--1---1
g--------0h2-----2---2--2-----------------2---2
d--0h2-----------2---2--2-----------------2---2
a----------------0---0--0-----------------0---0
e----------------------------------------------

   Am 
e-------------------------------------------------
b-------------------------------------------------
g-------------------------------------------------
d-------------------------------------------------
a--0m0m0m0m0m0m0m0m0m0m0m0m-(repeat as necessary)-
e-------------------------------------------------

then... at "ok"
   Am         G                  F
e--0-0-0----3--3--3------1---1--1--1--1--
b--1-1-1----0--0--0------1---1--1--1--1--
g--2-2-2----0--0--0------2---2--2--2--2--
d--2-2-2----0--0--0------3---3--3--3--3--
a--0-0-0----2--2--2------3---3--3--3--3--
e------------3--3--3-------1--1---1--1--1--


    D       Fmaj7   C        G        Fmaj7
e-2-2-2--0-0-0--0-0-0--3-3-3--0--0--0--------
b-3-3-3--1-1-1--1-1-1--0-0-0--1--1--1--------
g-2-2-2--2-2-2--0-0-0--0-0-0--2--2--2--------
d-0-0-0--3-3-3--2-2-0--0-0-0--3--3--3--------
a------------------3-3-3--2-2-2--------------
e---------------------------3-3-3------------
at "the grass doth groooowwww" go to section I.


then at "we are but men....rock!!" then this is played once
"Haaaaaaaaaaauuuwwuaaaaaa. Haaauuuww ah wau auw oh oh whoa oh ohh."
    D       Fmaj7   C        G        Fmaj7
e-2-2-2--0-0-0--0-0-0--3-3-3--0------------
b-3-3-3--1-1-1--1-1-1--0-0-0--1------------
g-2-2-2--2-2-2--0-0-0--0-0-0--2------------
d-0-0-0--3-3-3--2-2-0--0-0-0--3------------
a------------------3-3-3--2-2-2------------
e---------------------------3-3-3----------

Am              G                                        Am		      G         Am
This is not the greatest song in the world, no, this is just a tribute
Am		  G			 Am                                        G    Am
couldn´t remember the greatest song in the world, no ah oh NO! This is a tribute 


    A5	     G?            F#?                   F
e--0--0--0----0--0--0----0--0--0--0--0----1--1--1--------------------------------------------
b--0--0--0----0--0--0----3--3--1--0--1----1--1--1--------------------------------------------
g--2--2--2----2--2--2----0--0--0--0--0----2--2--2--------------------------------------------
d--2--2--2----2--2--2----0--0--0--0--0----3--3--3--------------------------------------------
a--0--0--0-----0--0--0----0--0--0--0--0----3--3--3-------------------------------------------
e--0--0--0-----3--3--3----2--2--2--2--2----1--1--1-------------------------------------------



      E               F
e---0-----------1------------------------------------------------------------
b---0-----------1------------------------------------------------------------
g---1-----------2------------------------------------------------------------
d---2-----------3------------------------------------------------------------
a---2-----------3------------------------------------------------------------
e---0-----------1------------------------------------------------------------

Lyrics with Chord names:
Am
This is the greatest and best song in the world.....tribute
Am
A long time ago, me and my brother Kyle here
Am
we was  hitch hikin´ down a long and lonesome road
Am
all of a sudden, there shined a shiny daemon
Am
in the middle of the road, and he said......

Am
"play the best song in the world, or i´ll eat your soul" (kyle): soul....
Am
well me and Kyle, we looked at each other, and we each said.... (together): "ok"
Am		  G			 F
and we played the first thing that came to our heads, just so happened to be...
Am		    G		         F		             
the best song in the world, it was the best song in the world, 
D                    	             Fmaj7
Look into my eyes and its easy to see, 
               C   		          G  
one and one make two, two and one make three
             Fmaj7
it was destiny
D			       Fmaj7
Once every hundred thousand years or so, 
                 C		            G
when the sun doth shine and the moon doth glow
	Fmaj7
and the grass doth groooowwww.
Am
well needless to say, the beast was stunned, whip crack! went ya swampy tail
Am
and the beast was done, he asked us (snort) "be you angels?" and we said "nay!,
Am
we are but men" ROCK!! 
                  D       Fmaj7   C        G        Fmaj7
(together) Haaaaaaaaaaauuuwwuaaaaaa. Haaauuuww ah wau auw oh oh whoa oh ohh.
Am	          G			  Am		    G            Am
This is not the greatest song in the world, no, this is just a tribute
Am		        G          	             Am			  G		A5
couldn´t remember the greatest song in the world, no ah oh NO! This is a tribute ooohhh
    A5	     G?            F#?                   F               A5	     G?            F# F
to the greatest song in the world, aaalright to the greatest song in the world, aaalright
    A5	   G?                                          F#?                           F
it is the best motherfuckin´ song the greatest song in the world auw...

(JB:) reuw euw oiw blan chigga fuogy boun flan chigga fladda blabba fladda blablah ehbeauw

         euwla flanch chigga fra fa fa fa freh flagga babbah feggah reggah mama Lucifer....
   A5	     G?            F#?                   F
    A5	                 G?                             F#?                        F A5
And the peculiar thing is this my friends, the song we sang on that fateful night, it
G?                 F#?                                       F                 
didn´t actually sound anything like this song! this is just a tribute (together)
                           G?            F#?                   F                     A5	 G  F# F
(together) you gotta believe me, and i wish you were there, just a matter of opinion ooohaaaaaaah FUCK!!
    A5	     G?                    F#?                               F
Good God and God lovin´ ya so surprised to find ya can´t stop him
 A5                        G?                     F#?                                      F
aup fuh and a roowy ount fauw, RRRich mothafucka´ can fuck a aaauuwww 
      E               F     (x 3)
			Alright      Alright
          

                         END

Upomenanie o grupe vi mojete nayti na- www.tenaciousd.com


Текст, аккорды и табулатура для песни "Tribute", исполняет "Tenacious D".
Используемые в песне аккорды можно найти в разделе Как брать аккорды. Аккорды для шестиструнной гитары. Другие песни можно найти на нашем сайте, воспользовавшись алфавитным указателем вверху страницы.


 
Ошибка в тексте? Выделите ошибку и нажмите Ctrl+Enter