The Road by: canadian_beaver985

A - (577655)
G - (355433)
D - (557775)
B - (X24442)
E - (022100)
G2 - (320033)
E2 - (200230)
Em - (022000)
F - (x33211)
Am - (x02210)

A  A  A  A

A                  G
The road is fuckin hard
    D              A
The road is fuckin toughah
A                   G
There?s no question thatah
D                 A
It is rough rough stuff
    B           G
It's the fuckin road my freind
             A
But it?s the only road I know
B                     G
When I?m snackin on a tasty bouch
                E
Right after the show

Ga ga go go go

A  A  A  A  A

A                  G
The road is fuckin hard
    D              A
it's also really fuckin touuugh
A                   G
There?s no question thatah
D               A
It dont take no guff
    B             G
The road is a B I itch my friend
             A
But it?s the only road I know
B                     G
When I?m snackin on a tasty bouch
                E
Right after the show
              Am
Ga ga go go gooo

For the next part:
  Am                                D(thing)
|-0---------------------------------0h2--2---2h3--3-3--3p2--2-2-|
|-1---------------------------------3----3---3----3-3--3----3-3-|
|-2---------------------------------2----2---2----2-2--2----2-2-|
|-2---------------------------------0--------0----0-0--0----0-0-|
|-0---------------------------------0---------------------------|
|---------------------------------------------------------------|


Am                     D(thing)
 I met a tasty baby in Michigan
Am                           D(thing)
 We screwed two times then I left
Am                               D(play D as shown below for this part)
 Sometimes I think of my baby in Michigan         Why can?t I

(play this for Dthing)
-0h2--2---2h3--3-3-3-3-3-3-|
-3----3---3----3-3-3-3-3-3-|
-2----2---2----2-2-2-2-2-2-|
-0--------0----0-0-0-0-0-0-|
---------------------------|
---------------------------|

G2                    E2                  Em
stay in one place for more than two days  why
F           G2               G
Because I'm talkin about the road


Текст, аккорды и табулатура для песни "Road", исполняет "Tenacious D".
Используемые в песне аккорды можно найти в разделе Как брать аккорды. Аккорды для шестиструнной гитары. Другие песни можно найти на нашем сайте, воспользовавшись алфавитным указателем вверху страницы.


 
Ошибка в тексте? Выделите ошибку и нажмите Ctrl+Enter