___---======---___

                        Tabulated By John Ware

                          [email protected]
                      
                               23/12/02



e|---2-----2-----------5-----5-----------3----3-----------------0---------------|
B|-----3-----3-----------7-----7-----------5----5-------------2-----------------|
G|-------2-----2-----------6-----6-----------4----4---------0-------------------|
D|-0-------------0---4-------------4---2------------------2---------------------|
A|------------------------------------------------------0-----------------------|
E|------------------------------------------------------------------------------|

e|---2-----2-----------5-----5-----------3----3-----------------------0---------|
B|-----3-----3---3-------7-----7-----------5----5---------2-----2h3-----2h3-----|
G|-------2-----2-----------6-----6-----------4----4---------2-------2-----------|
D|-0-----------------4-------------4---2----------------------2-----------------|
A|------------------------------------------------------0-----------------------|
E|------------------------------------------------------------------------------|

e|---2-----2-----------5-----5-----------3----3-------------------0-------------|
B|-----3-----3-----------7-----7-----------5----5---------2---3---2-------------|
G|-------2-----2-----------6-----6-----------4----4-----------------------------|
D|-0-------------0---4-------------4---2----------------------------------------|
A|------------------------------------------------------0---0-------------------|
E|------------------------------------------------------------------------------|

e|-----------2-----------3---3---------------2-----------3---3-----2--2--2--2-----0-x---|
B|-------2h3---3---------3---3-----------2h3---3---------3---3-----3--3--3--3-----2-x---|
G|-----4-4-------4-------0---0---------4-4-------4-------0---0-----2--2--2--2-----2-x---|
D|---4-----------------0-------------4-----------------0-----------0--0--0--0-----2-x---|
A|-2-----------------2-------------2-----------------2-------------0--0--0--0-----0-x---|
E|-----------------3-------------------------------3---------------0--0--0--0-----0-x---|

e|---2-----2-------------5-----5-----------3----3---------------------0---------|
B|-----3-----3----3--------7-----7-----------5----5---------2-----3---2-2h3-----|
G|-------2-----0h2-----------6-----6-----------4----4---------2-----2-----------|
D|-0-------------------4-------------4---2----------------------2---------------|
A|------------------------------------------------------0-----------------------|
E|------------------------------------------------------------------------------|

e|---2-----2-----------5-----5-----------3----3-------------------0-------------|
B|-----3-----3-----------7-----7-----------5----5---------2---3---2-------------|
G|-------2-----2-----------6-----6-----------4----4-----------2-----------------|
D|-0-------------0---4-------------4---2----------------------------------------|
A|------------------------------------------------------0---0-------------------|
E|------------------------------------------------------------------------------|

e|-----------2-----------3---3---------------2--------------0-------------------|
B|-------2h3---3---------3---3-----------2h3-3------2---3---2-------------------|
G|-----4-4-------4-------0---0---------4-4--------------2-----------------------|
D|---4-----------------0-------------4------------------------------------------|
A|-2-----------------2-------------0--------------0---0-------------------------|
E|-----------------3------------------------------------------------------------|

                                    rake
e|-----------2-----------3---3-3-0--2-----2-2---0-0-----------------------------|
B|-------2h3---3---------3---3-3-0---3----3-3---2-2-----------------------------|
G|-----4-4-------4-------0---0-0-0----2---2-2---2-2-----------------------------|
D|---4-----------------0---------------0--------2-2-----------------------------|
A|-2-----------------2------------------0-------0-0-----------------------------|
E|-----------------3------------------------------------------------------------|

e|---2-----2-------------5-----5-----------3----3---------------------0---------|
B|-----3-----3----3--------7-----7-----------5----5---------2-----3---2-2h3-----|
G|-------2-----0h2-----------6-----6-----------4----4---------2-----2-----------|
D|-0-------------------4-------------4---2----------------------2---------------|
A|------------------------------------------------------0-----------------------|
E|------------------------------------------------------------------------------|

e|---2-----2-----------5-----5-----------3----3-------------------0-------------|
B|-----3-----3-----------7-----7-----------5----5---------2---3---2-------------|
G|-------2-----2-----------6-----6-----------4----4-----------2-----------------|
D|-0-------------0---4-------------4---2----------------------------------------|
A|------------------------------------------------------0---0-------------------|
E|------------------------------------------------------------------------------|

e|-----------2-----------3---3-----2---2---2---0---0-0-----2-2-2---2-----3---3-3-|
B|-------2h3---3---------3---3-----3---3---2---2---3-2-----3-3-2h3---3---3---3-3-|
G|-----4-4-------4-------0---0-----4---4---4---2---2-2-----4-4-4-------4-0---0-0-|
D|---4-----------------0-----------4---4---4---2---2-2-----4-4-4---------0---0-0-|
A|-2-----------------2-------------0---0---0---0---0-0-----2-2-2---------2---2-2-|
E|-----------------3-----------------------------------------------------3---3-3-|

e|-2-x-x-x-x-x-x-x-----------------0---0---0-0-0---0---0---0-0-0---3---3---3-3-3-|
B|-3-x-x-x-x-x-x-x-0-x-x-x-x-x-x-x-2---2---2-2-2---1---1---1-1-1---0---0---0-0-0-|
G|-2-x-x-x-x-x-x-x-0-x-x-x-x-x-x-x-2---2---2-2-2---0---0---0-0-0---0---0---0-0-0-|
D|-0-x-x-x-x-x-x-x-2-x-x-x-x-x-x-x-2---2---2-2-2---2---2---2-2-2---0---0---0-0-0-|
A|-----------------2-x-x-x-x-x-x-x-0---0---0-0-0---3---3---3-3-3---2---2---2-2-2-|
E|-----------------------------------------------------------------3---3---3-3-3-|

e|-2---------3p2-------0---1-----1-----1-1-0-x-x-0-x-x-0-0-----2-----------------|
B|-3-------------3-----3---1-x-x-1-x-x-1-1-1-x-x-1-x-x-1-1----3------------------|
G|-2---------------2-------2-x-x-2-x-x-2-2-0-x-x-0-x-x-0-0---2-------------------|
D|-0-----------------------3-x-x-3-x-x-3-3-2-x-x-2-x-x-2-2--0--------------------|
A|-0-----------------------0-x-x-0-x-x-0-0-3-x-x-3-x-x-3-3-0---------------------|
E|-------------------------------------------------------------------------------|

(Every set of tabs I've seen for this song are the same so I wrote my own.
Distribute Freely, but  no copying. Took me ages to do these).


Текст, аккорды и табулатура для песни "Fuck Her Gently", исполняет "Tenacious D".
Используемые в песне аккорды можно найти в разделе Как брать аккорды. Аккорды для шестиструнной гитары. Другие песни можно найти на нашем сайте, воспользовавшись алфавитным указателем вверху страницы.


 
Ошибка в тексте? Выделите ошибку и нажмите Ctrl+Enter