Tenacious D
Friendship
Regular Tuning
  submitted by kyle hayes

           B                      Ab
E-------------------------------------------------                      
B-------------------------------------------------
G-------------------------------------------------   repeat
D-9-9-9-9-9-9-9-9---------------6-6-6-6-----------
A-9-9-9-9-9-9-9-9-repeat--------6-6-6-6-----------
E-7-7-7-7-7-7-7-7---------------4-4-4-4-----------                     


Friendship is rare do ya know what im sayin to ya, Friendship is rare
My derriere, when ya find out much later that you dont really care


      A        E        B
E---------------------------
B---------------------------
G-----------9-9-9-9---------
D--7-7-7-7--9-9-9-9--9-9-9-9
A--7-7-7-7--7-7-7-7--9-9-9-9
E--5-5-5-5-----------7-7-7-7

It's rare to me, cant ya see?

(repeat both parts)

  A  E  B
E--------------
B--------------
G----9---------
D-7--9--9------
A-7--7--9------
E-5-----7------

Its rare to me.... say a prayer for me..... 
cuz its rare for me and tenacious d      Emaj
                                    E-------------
                                    B----9--10----
                                    G----9--9-----
                                    D----9--9-----
                                    A----7--7-----
                                    E-------------

       B      Bb B Bb
E----------------------
B----------------------
G----------------------
D--9-9-9-9-8-9-8-9-8---
A--9-9-9-9-8-9-8-9-8---
E--7-7-7-7-6-7-6-7-6---

friends will be friends they'll be runnin naked in the sand....

      B        Db      E
E---------------------------
B---------------------------
G-----------6-6-6-6--9-9-9-9
D--9-9-9-9--6-6-6-6--9-9-9-9
A--9-9-9-9--4-4-4-4--7-7-7-7
E--7-7-7-7------------------

as long as theres a record deal we'll always be friends......


Текст, аккорды и табулатура для песни "Friendship", исполняет "Tenacious D".
Используемые в песне аккорды можно найти в разделе Как брать аккорды. Аккорды для шестиструнной гитары. Другие песни можно найти на нашем сайте, воспользовавшись алфавитным указателем вверху страницы.


 
Ошибка в тексте? Выделите ошибку и нажмите Ctrl+Enter