Explosivo

Tenacious D


Tabbed by: David

Tuning: Standard


    Csus4
e|----3----------------------------------------------------------------------|
B|----3----------------------------------------------------------------------|
G|----5----------------------------------------------------------------------|
D|----5----------------------------------------------------------------------|
A|----3----------------------------------------------------------------------|
E|---------------------------------------------------------------------------|
     Climb upon my faithful steed, then we gonna ride gonna smoke some weed
     Climb upon my big-assed steed, then ride, ride, riiiiiiiiide.


       C5       G#5 A#5
e|----------------------------------------------|
B|----------------------------------------------|
G|----555555----------------555555--------------|
D|----555555---6666-88------555555---6666-88----|
A|----333333---6666-88------333333---6666-88----|
E|-------------4444-66---------------4444-66----|

e|----------------------------------------------------------------------|
B|----------------------------------------------------------------------|
G|----555555----------------555555----------------555555----------------|
D|----555555---6666-88------555555---6666-88------555555---6666-88------|
A|----333333---6666-88------333333---6666-88------333333---6666-88------|
E|-------------4444-66---------------4444-66---------------4444-66------|
     Heeeeeeeeeeeeeeeeeeeeeeeeeeeeeeeeeeeeeeeeeeeeeeeeeeeeeeeeeeeee

e|--------------------------------------------------------------------------|
B|--------------------------------------------------------------------------|
G|----55555555----------------55555555----------------55555555--------------|
D|----55555555---6666-8888----55555555---6666-8888----55555555---6666-8888--|
A|----33333333---6666-8888----33333333---6666-8888----33333333---6666-8888--|
E|---------------4444-6666---------------4444-6666---------------4444-6666--|
What's the name of the song? Explosivo!....

e|--------------------------------------------------------------------------|
B|--------------------------------------------------------------------------|
G|----55555555----------------55555555----------------55555555--------------|
D|----55555555---6666-8888----55555555---6666-8888----55555555---6666-8888--|
A|----33333333---6666-8888----33333333---6666-8888----33333333---6666-8888--|
E|---------------4444-6666---------------4444-6666---------------4444-6666--|
We are fueled by Satan....writing those tasty riffs...

    C5   D#5  F5
e|--333---------------------333--------------------|
B|--333---------------------333--------------------|
G|--555--8888-10-10-10-10---555--8888-10-10-10-10--|
D|--555--8888-10-10-10-10---555--8888-10-10-10-10--|
A|--333--6666-8--8--8--8----333--6666-8--8--8--8---|
E|-------------------------------------------------|
   We were the inventors of the cosmic astrocode....


e|--333---------------------333--------------------|
B|--333---------------------333--------------------|
G|--555--8888-10-10-10-10---555--8888-10-10-10-10--|
D|--555--8888-10-10-10-10---555--8888-10-10-10-10--|
A|--333--6666-8--8--8--8----333--6666-8--8--8--8---|
E|-------------------------------------------------|
We've come to fuckin blow, we've come to blow the show...


e|----------------------------------------------|
B|----------------------------------------------|
G|----555555----------------555555--------------|
D|----555555---6666-88------555555---6666-88----|
A|----333333---6666-88------333333---6666-88----|
E|-------------4444-66---------------4444-66----|

e|----------------------------------------------------------------------|
B|----------------------------------------------------------------------|
G|----555555----------------555555----------------555555----------------|
D|----555555---6666-88------555555---6666-88------555555---6666-88------|
A|----333333---6666-88------333333---6666-88------333333---6666-88------|
E|-------------4444-66---------------4444-66---------------4444-66------|
     Heeeeeeeeeeeeeeeeeeeeeeeeeeeeeeeeeeeeeeeeeeeeeeeeeeeeeeeeeeeee


e|--------------------------------------------------
B|--------------------------------------------------
G|----55555555----------------55555555--------------
D|----55555555---6666-8888----55555555---6666-8888--
A|----33333333---6666-8888----33333333---6666-8888--
E|---------------4444-6666---------------4444-6666--
What's the name of the song? Explosivo!....


e|--333---------------------333--------------------|
B|--333---------------------333--------------------|
G|--555--8888-10-10-10-10---555--8888-10-10-10-10--|
D|--555--8888-10-10-10-10---555--8888-10-10-10-10--|
A|--333--6666-8--8--8--8----333--6666-8--8--8--8---|
E|-------------------------------------------------|
 RRRRRRRRRRRRAAAAA...........I am not one of you...

It's these last three chords faster and faster and faster and faster til the end.
By the end , you should be playing as fast you possibly can for the best effect.

Lyrics:
Climb upon my faithful steed, then we gonna ride gonna smoke some weed
Climb upon my big-assed steed, and ride, ride, ride....
Heeeeeeeeeeeeeeeeeeeeeeeeeeeeeeeeeeeeeeeeeeee
What's the name of the song? Explosivo!
Don't know what it's about, but it's good to go.
What's the name of my girlfriend? I don't know 
But she's built like the shit, and she's good to go
Go, she's good to go, she's good to go
We are fueled by satan, yes, we're schooled by sSatan
Fueled by satan!
Writing those tasty riffs, just as fast we can
Schooled by satan!
We were the inventors of the cosmic astrocode
We've come to blow you away, we've come to blow your nose
We've come to fuckin blow, we've come to blow the show
We've come to fuckin blow! You know it! You know it!
Heeeeeeeeeeeeeeeeeeeeeeeeeeeeeeeeeeeeeeeeeeee
What's the name of the song? Explosivo!
Don't know what it's about but it's good to 
RrrRRRRRRRRRRRRRrrrRRRRrAAAAAAAAAAAaaaAAa!
I am not one of you... I come from an ancient time...
I am known as the ???
I am also known as the angel crrrrusher!
Take these picks! They were molded in satan's cauldron...
Take these picks, they're souvenir satan picks
Explosivo


| /  slide up
|   slide down
| h  hammer-on
| p  pull-off
| ~  vibrato
| +  harmonic
| x  Mute note

===============================================================================


Текст, аккорды и табулатура для песни "Explosivo", исполняет "Tenacious D".
Используемые в песне аккорды можно найти в разделе Как брать аккорды. Аккорды для шестиструнной гитары. Другие песни можно найти на нашем сайте, воспользовавшись алфавитным указателем вверху страницы.


 
Ошибка в тексте? Выделите ошибку и нажмите Ctrl+Enter