This song rules, i saw there was already a tab for this song but it sounds a bit wrong,
so i did this one for you all!

e|----3----------------------------------------------------------------------
B|----3----------------------------------------------------------------------
G|----5----------------------------------------------------------------------
D|----5----------------------------------------------------------------------
A|----3----------------------------------------------------------------------
E|---------------------------------------------------------------------------
     Climb upon my faithful steed, then we gonna ride gonna smoke some weed
     Climb upon my big-assed steed, then ride, ride, riiiiiidddeee.


e|----------------------------------------------|
B|----------------------------------------------|
G|----------------------------------------------|
D|---------10---------8------------10--------8--|x3
A|-------10----------8-----------10---------8---|
E|--88-8--------44-6--------88-8--------44-6----|
Spppppeeeeeeeeeeeeeeeeeeeeeeeeeeeeeeeddddddddddd


e|-----------------------------------------------------|
B|-----------------------------------------------------|
G|-----------------------------------------------------|
D|---10-10-10-10-10-10-10-10--6--6--6--6--8--8--8--8---|
A|---10-10-10-10-10-10-10-10--6--6--6--6--8--8--8--8---|
E|---8--8--8--8--8--8--8--8---4--4--4--4--6--6--6--6---|

what's the name of the song? explosivo!...

e|-----------------------------------------------------|
B|-----------------------------------------------------|
G|-----------------------------------------------------|
D|---10-10-10-10-10-10-10-10--6--6--6--6--8--8--8--8---|
A|---10-10-10-10-10-10-10-10--6--6--6--6--8--8--8--8---|
E|---8--8--8--8--8--8--8--8---4--4--4--4--6--6--6--6---|

don't know what its bout, but its good to go!...

e|-----------------------------------------------------|
B|-----------------------------------------------------|
G|-----------------------------------------------------|
D|---10-10-10-10-10-10-10-10--6--6--6--6--8--8--8--8---|
A|---10-10-10-10-10-10-10-10--6--6--6--6--8--8--8--8---|
E|---8--8--8--8--8--8--8--8---4--4--4--4--6--6--6--6---|

whats the name of my girlfriend? i don't know...

e|-----------------------------------------------------|
B|-----------------------------------------------------|
G|-----------------------------------------------------|
D|---10-10-10-10-10-10-10-10--6--6--6--6--5--5--5--5---|
A|---10-10-10-10-10-10-10-10--6--6--6--6--5--5--5--5---|
E|---8--8--8--8--8--8--8--8---4--4--4--4--3--3--3--3---|

but she smeels like good shit, and shes good too go...

e|-----------------------------------------------------|
B|-----------------------------------------------------|
G|-----------------------------------------------------|
D|---10-10-10-10-10-10-10-10--6--6--6--6--8--8--8--8---|
A|---10-10-10-10-10-10-10-10--6--6--6--6--8--8--8--8---|
E|---8--8--8--8--8--8--8--8---4--4--4--4--6--6--6--6---|

shes goog too go, shes good too GO!!!

e|-----------------------------------------------------|
B|-----------------------------------------------------|
G|-----------------------------------------------------|
D|---10-10-10-10-10-10-10-10--6--6--6--6--8--8--8--8---|
A|---10-10-10-10-10-10-10-10--6--6--6--6--8--8--8--8---|
E|---8--8--8--8--8--8--8--8---4--4--4--4--6--6--6--6---|

we are fuled by satan yes we're fuled by sataaaan...

e|-----------------------------------------------------|
B|-----------------------------------------------------|
G|-----------------------------------------------------|
D|---10-10-10-10-10-10-10-10--6--6--6--6--3--3--3--3---|
A|---10-10-10-10-10-10-10-10--6--6--6--6--3--3--3--3---|
E|---8--8--8--8--8--8--8--8---4--4--4--4--3--3--3--3---|

FULED! BY SATAN!!!

e|-----------------------------------------------------|
B|-----------------------------------------------------|
G|-----------------------------------------------------|
D|---10-10-10-10-10-10-10-10--6--6--6--6--8--8--8--8---|
A|---10-10-10-10-10-10-10-10--6--6--6--6--8--8--8--8---|
E|---8--8--8--8--8--8--8--8---4--4--4--4--6--6--6--6---|

writing those tasty riffs just as fast as they can...

e|-----------------------------------------------------|
B|-----------------------------------------------------|
G|-----------------------------------------------------|
D|---10-10-10-10-10-10-10-10--6--6--6--6--5--5--5--5---|
A|---10-10-10-10-10-10-10-10--6--6--6--6--5--5--5--5---|
E|---8--8--8--8--8--8--8--8---4--4--4--4--3--3--3--3---|

FULED!!! BY SATAN!!!

e|-----------------------------------------------------|
B|-----------------------------------------------------|
G|----------------------------8--8--8--8--10-10-10-10--|
D|---10-10-10-10-10-10-10-10--8--8--8--8--10-10-10-10--|
A|---10-10-10-10-10-10-10-10--6--6--6--6--8--8--8--8---|
E|---8--8--8--8--8--8--8--8----------------------------|

we were the inventors, of the astro cosmic code,

e|-----------------------------------------------------|
B|-----------------------------------------------------|
G|----------------------------8--8--8--8--10-10-10-10--|
D|---10-10-10-10-10-10-10-10--8--8--8--8--10-10-10-10--|
A|---10-10-10-10-10-10-10-10--6--6--6--6--8--8--8--8---|
E|---8--8--8--8--8--8--8--8----------------------------|

we could of blown you AWAY!!! we could of blown your nose...

e|-----------------------------------------------------|
B|-----------------------------------------------------|
G|----------------------------8--8--8--8--10-10-10-10--|
D|---10-10-10-10-10-10-10-10--8--8--8--8--10-10-10-10--|
A|---10-10-10-10-10-10-10-10--6--6--6--6--8--8--8--8---|
E|---8--8--8--8--8--8--8--8----------------------------|

we could of fucking blown, we could of blown the show!!!

e|-----------------------------------------------------|
B|-----------------------------------------------------|
G|----------------------------8--8--8--8--10-10-10-10--|
D|---10-10-10-10-10-10-10-10--8--8--8--8--10-10-10-10--|
A|---10-10-10-10-10-10-10-10--6--6--6--6--8--8--8--8---|
E|---8--8--8--8--8--8--8--8----------------------------|

we could of fucking blown!!! you know it, YOU KNOW IT!!!

e|----------------------------------------------|
B|----------------------------------------------|
G|----------------------------------------------|
D|---------10---------8------------10--------8--|x2
A|-------10----------8-----------10---------8---|
E|--88-8--------44-6--------88-8--------44-6----|
Spppppeeeeeeeeeeeeeeeeeeeeeeeeeeeeeeeddddddddddd

e|-----------------------------------------------------|
B|-----------------------------------------------------|
G|-----------------------------------------------------|
D|---10-10-10-10-10-10-10-10--6--6--6--6--8--8--8--8---|
A|---10-10-10-10-10-10-10-10--6--6--6--6--8--8--8--8---|
E|---8--8--8--8--8--8--8--8---4--4--4--4--6--6--6--6---|

what's the name of the song? explosivo!...

e|-----------------------------------------------------|
B|-----------------------------------------------------|
G|-----------------------------------------------------|
D|---10-10-10-10-10-10-10-10--6--6--6--6--5--5--5--5---|
A|---10-10-10-10-10-10-10-10--6--6--6--6--5--5--5--5---|
E|---8--8--8--8--8--8--8--8---4--4--4--4--3--3--3--3---|

don't know what its bout, but its good to go!...

e|-----------------------------------------------------|
B|-----------------------------------------------------|
G|----------------------------8--8--8--8--10-10-10-10--|
D|---10-10-10-10-10-10-10-10--8--8--8--8--10-10-10-10--|
A|---10-10-10-10-10-10-10-10--6--6--6--6--8--8--8--8---|
E|---8--8--8--8--8--8--8--8----------------------------|

AAAAAGGGGHHHHH!!!!! i am not one of you...

e|-----------------------------------------------------|
B|-----------------------------------------------------|
G|----------------------------8--8--8--8--10-10-10-10--|
D|---10-10-10-10-10-10-10-10--8--8--8--8--10-10-10-10--|
A|---10-10-10-10-10-10-10-10--6--6--6--6--8--8--8--8---|
E|---8--8--8--8--8--8--8--8----------------------------|

i come from an ancient time...

e|-----------------------------------------------------|
B|-----------------------------------------------------|
G|----------------------------8--8--8--8--10-10-10-10--|
D|---10-10-10-10-10-10-10-10--8--8--8--8--10-10-10-10--|
A|---10-10-10-10-10-10-10-10--6--6--6--6--8--8--8--8---|
E|---8--8--8--8--8--8--8--8----------------------------|

i am known... as THE KING OF ELVES!!!

e|-----------------------------------------------------|
B|-----------------------------------------------------|
G|----------------------------8--8--8--8--10-10-10-10--|
D|---10-10-10-10-10-10-10-10--8--8--8--8--10-10-10-10--|
A|---10-10-10-10-10-10-10-10--6--6--6--6--8--8--8--8---|
E|---8--8--8--8--8--8--8--8----------------------------|

i am also known, as the angel, ACNASHAR!!!

e|-----------------------------------------------------|
B|-----------------------------------------------------|
G|----------------------------8--8--8--8--10-10-10-10--|x3/4/5
D|---10-10-10-10-10-10-10-10--8--8--8--8--10-10-10-10--|(listen to it and 
A|---10-10-10-10-10-10-10-10--6--6--6--6--8--8--8--8---|your'll get it) 
E|---8--8--8--8--8--8--8--8----------------------------|

explosivo works only for satan!!!

e|------------------|---(this bit is palm muted)-------|
B|------------------|----------------------------------|
G|------------------|---10---9---7---------------------|
D|-10---------------|---10---9---7---------------------|
A|-10---------------|---8----7---5---------------------|
E|-8----------------|----------------------------------|

explosivo...


Текст, аккорды и табулатура для песни "Explosivo", исполняет "Tenacious D".
Используемые в песне аккорды можно найти в разделе Как брать аккорды. Аккорды для шестиструнной гитары. Другие песни можно найти на нашем сайте, воспользовавшись алфавитным указателем вверху страницы.


 
Ошибка в тексте? Выделите ошибку и нажмите Ctrl+Enter