My Girl
Temptation
OST My Girl
tabbed by FOXI 1509 

---------------------------------------

Chords used:
D 	(xx0232)
G 	(320003)
Em 	(x22000)
A	(002220)
A7	(002020)  
E	(x22100)
F#m	(233222)
B	(223332)
B7	(223232)	



INTRO 

intro 1	:
e|-------------|
B|-------------|
G|-2-----------|	5x
D|---0-0-------|	
A|-------------|
E|-------------|

and then

intro 2	:
e|-------------|
B|-----------3-|
G|-------2-4---|
D|-0-2-4-------|	2x
A|-------------|
E|-------------|

verse 1	:

e|-------------|-------------|-------------|
B|-----------3-|-------------|-----------3-|
G|-------2-4---|-----------0-|-------2-4---|
D|-0-2-4-------|-------0-2---|-0-2-4-------|
A|-------------|---0-2-------|-------------|
E|-------------|-3-----------|-------------|

or you can use the chord : 

         D        G           D	  G
I've got sunshine on a cloudy day
             D          G        D                  	G
 When it's cold outside, I've got the month of May


CHORUS:
  D Em    G   A
  I guess you say,
  D        Em      G         A
  What can make me feel this way?
  D
  My girl...my girl..... (my girl....)
                G         A7
  Talking 'bout my girl  (my girl...)

verse 2	:

		D	G		D   G
I've got so much honey , the bees envy me
		D		G		   D    G
I've got a sweeter song, than the birds and the trees





 again until the violin played

e|-------------|
B|-------------|
G|-2-----------|	
D|---0-0-------|
A|-------------|
E|-------------|


and then

e|-------------0|--------------|-------------0|
B|---------0-2--|--------------|---------0-2--|
G|-------1------|-----------2--|-------1------|
D|---2-4--------|-------2-4----|---2-4--------|
A|--------------|-0-2-4--------|--------------|
E|--------------|--------------|--------------|


verse 3	:

        E           A             E	A
I don't need no money, fortune or fame
           E                A         E		A            
I've got all the riches- baby, one man can claim

(Chorus)

  E F#m   A   B
  I guess you say,
  E        F#m      A         B
  What can make me feel this way?
  E
  My girl...my girl....(my girl....)
                 A (or F#m)   B7
  Talking 'bout my girl		(talking 'bout my girl...)


If is there any mistake, I apologize
but when I play with the (original) song, it was match

THANK YOU


Foxi 1509


Текст, аккорды и табулатура для песни "My Girl", исполняет "Temptations".
Используемые в песне аккорды можно найти в разделе Как брать аккорды. Аккорды для шестиструнной гитары. Другие песни можно найти на нашем сайте, воспользовавшись алфавитным указателем вверху страницы.


Слушать онлайн My Girl


The TemptationsMy Girl на Яндекс.Музыке


 
Ошибка в тексте? Выделите ошибку и нажмите Ctrl+Enter