Time - Tea Party

Twelve string acoustic guitar

e|--------------------------|
b|-----------------------0--|
g|-----------0--------------|
d|--------4-----------4-----|
a|-----5-----------5--------|
e|--0-----------0-----------|

e|--------------------------------------------------------------------------|
b|-----------------------------------------------------------------------0--|
g|-----------0-----------0-----------0-----------0-----------0--------------|
d|--------4-----------4-----------4-----------4-----------4-----------4-----|
a|-----5-----------5-----------5-----------5-----------5-----------5--------|
e|--3-----------3-----------2-----------2-----------0-----------0-----------|

e|--------------------------|
b|-----------------------0--|
g|-----------0--------------|
d|--------4-----------4-----|
a|-----5-----------5--------|
e|--0-----------0-----------|

e|--------------------------------------------------------------|
b|-----0--------------------------------------------------------|
g|-----------0-----2-----0-----0-----0-----------0-----2-----0--|
d|--------2-----------2-----------2--------4--2-----------2-----|
a|--3-----------3-----------3-----------3-----------3-----------|
e|--------------------------------------------------------------|

e|--------------------------------------|
b|--------------------------------------|
g|-----------------------------------0--|
d|-----0-----0-----------0-----0--4-----|
a|--------2--------4--2-----5-----------|
e|--3-----------3-----------------------|

e|--------------------------|
b|--------------------------|
g|-----------0--------0-----|
d|-----0--4--------0-----4--|
a|--5-----------5-----------|
e|--------------------------|

e|--------------------------------------|
b|--0--0-----0-----0-----0-----0--------|
g|--0-----2-----0-----------------------|
d|--2-----------------4-----2-----------|
a|--2-----------------------------2-----|
e|--0--------------------------------0--|

e|--------------------------------------------|
b|-----------------------0--------------0-----|
g|-----------------0--------4--------------4--|
d|--------------------2-----------4--2--------|
a|-----------0--3--------------3--------------|
e|--0--2--3-----------------------------------|

electric guitar (distortion)

e|---------------------------------------------------------|
b|---------------------------------------------------------|
g|---------------------------------------------------------|
d|--9--7--9------7--9--11------7--4----4----2--4--2--------|
a|--7--5--7------5--7--9-------5--2----2----0--2--0--5--4--|
e|---------------------------------------------------3--2--|


Текст, аккорды и табулатура для песни "Time", исполняет "Tea Party".
Используемые в песне аккорды можно найти в разделе Как брать аккорды. Аккорды для шестиструнной гитары. Другие песни можно найти на нашем сайте, воспользовавшись алфавитным указателем вверху страницы.


 
Ошибка в тексте? Выделите ошибку и нажмите Ctrl+Enter