T1: Chris Marks, [email protected], The Tea Party, Heaven Coming
Down, I think August 99

S2: There are several versions of tab for this song floating around,
but I've played them all and they all SUCK.  I spent two hours with
WINAMP listening to the song and tabbing this version out, and it
sounds perfect.

S1: The Tea Party - Heaven Coming Down

tabbed by Chris Marks
[email protected]

I know there's an easier way to play it, but this is how THEY play it
(more or less)
The easy way is at the bottom.
I tried to line the lyrics up as closely as I could, but it's not quite
accurate.
Intro:

pickup
E|---|----------------|----------------|----------------|----------------|
b|---|----------------|--3-2---0-------|--0-2-3---------|--0-2-3---------|
g|---|----6-7---0---2-|------2---------|--------2-0---2-|0-------2-0---2-|
d|---|0-9-----7---4---|0---------4-5-4-|------------4---|------------4---|
a|-4-|----------------|----------------|5---------------|----------------|
e|---|----------------|----------------|----------------|----------------|

E|----------------|----------------|----------------|----------------|
b|----------------|--3-2---0-------|--0-2-3---------|--0-2-3---------|
g|----6-7---0---2-|------2---------|--------2-0---2-|0-------2-0---2-|
d|--9-----7---4---|0---------4-5-4-|------------4---|------------4---|
a|----------------|----------------|5---------------|----------------|
e|----------------|----------------|----------------|----------------|

(no guitar for verse 1)

With nothing to lose
you'd waste away,
obscured in exile.
They've witnessed the times
you've gone astray,
whose fault?  Now you're thinking...
There's nothing to prove...
A snapshot from the crowd to the shore, baby...

Chorus 1:
pickup
E|---|----------------|----------------|----------------|----------------|
b|---|----------------|--3-2---0-------|--0-2-3---------|--0-2-3---------|
g|---|----6-7---0---2-|------2---------|--------2-0---2-|0-------2-0---2-|
d|---|0-9-----7---4---|0---------4-5-4-|------------4---|------------4---|
a|-4-|----------------|----------------|5---------------|----------------|
e|---|----------------|----------------|----------------|----------------|
              And it feels now, just like heaven's coming down

(no guitar for verse 2)

So strange are the ways
they all have changed,
still life it stays the same.
A break from the past
could make it last, oh,
maybe just a little longer.
There's nothing to prove...
A snapshot from the crowd to the shore, baby...

Chorus 2:
pickup
E|---|----------------|----------------|----------------|----------------|
b|---|----------------|--3-2---0-------|--0-2-3---------|--0-2-3---------|
g|---|----6-7---0---2-|------2---------|--------2-0---2-|0-------2-0---2-|
d|---|0-9-----7---4---|0---------4-5-4-|------------4---|------------4---|
a|-4-|----------------|----------------|5---------------|----------------|
e|---|----------------|----------------|----------------|----------------|
              And it feels now, just like heaven's coming down.    
Your

E|----------------|----------------|----------------|----------------|
b|----------------|--3-2---0-------|--0-2-3---------|--0-2-3---------|
g|----6-7---0---2-|------2---------|--------2-0---2-|0-------2-0---2-|
d|--9-----7---4---|0---------4-5-4-|------------4---|------------4---|
a|----------------|----------------|5---------------|--------------0-|
e|----------------|----------------|----------------|----------------|
  soul    shakes free    as its   conscience hits the ground

Bridge:

E|------0---2-----|------2---------|
b|0-2-3-----------|--3-0-----3-----|
g|----------------|--------------2-| x3
d|----------------|----------------|
a|----------------|----------------|
e|----------------|----------------|
            You  surrender
            Love under will
            Rest assured baby,   you're

E|------0-2-5-----|----------0-2-5-|
b|0-2-3---------0-|----0-2-3-------|
g|------------2---|--2-------------|
d|----------------|----------------|
a|----------------|----------------|
e|----------------|----------------|
adored...

Chorus 3:
E|----------------|----------------|----------------|----------------|
b|----------------|--3-2---0-------|--0-2-3---------|--0-2-3---------|
g|----6-7---0---2-|------2---------|--------2-0---2-|0-------2-0---2-|
x4
d|--9-----7---4---|0---------4-5-4-|------------4---|------------4---|
a|----------------|----------------|5---------------|----------------|
e|----------------|----------------|----------------|----------------|
         And it feels now, just like heaven's coming down.
Your soul shakes free, as its conscience hits the ground.
These signs, this fate, takes the path you didn't choose.
Stay strong, keep faith, there's a change that's coming through.

Outro:
E|----------------|----------------|
b|--0-2-3---------|--0-2-3---------|
g|--------2-0---2-|0-------2-0---2-| x5 (fading out)
d|------------4---|------------4---|
a|----------------|----------------|
e|----------------|----------------|
Hold on my love

Full lyrics (what's in the song, not what's at the www.teaparty.com
website)

Verse 1:
With nothing to lose
you'd waste away,
obscured in exile.
They've witnessed the times
you've gone astray,
whose fault?  Now you're thinking...
There's nothing to prove
A snapshot from the crowd to the shore, baby...

Chorus 1:
And it feels now,
just like heaven's coming down

Verse 2:
So strange are the ways
they all have changed,
still life it stays the same.
A break from the past
could make it last, oh,
maybe just a little longer.
There's nothing to prove...
A snapshot from the crowd to the shore, baby...

Chorus 2:
And it feels now,
just like heaven's coming down
Your soul shakes free
as its conscience hits the ground

Bridge:
You surrender
Love under will
Rest assured baby,
You're adored

Chorus 3:
And it feels now,
just like heaven's coming down.
Your soul shakes free,
as its conscience hits the ground.
these signs, this fate,
takes the path you didn't choose.
Stay strong, keep faith,
there's a change that's coming through.

Outro:
hold on my love
hold on...

Now the easier version of that chorus/intro riff:

E|----------------|----------------|----------------|----------------|
b|--0-2-3---------|--3-2---0-------|--0-2-3---------|--0-2-3---------|
g|--------2-0---2-|------2---------|--------2-0---2-|0-------2-0---2-|
d|0-----------4---|0---------4-5-4-|0-----------4---|------------4---|
a|----------------|----------------|----------------|----------------|
e|----------------|----------------|----------------|----------------|



Текст, аккорды и табулатура для песни "Heaven Coming Down", исполняет "Tea Party".
Используемые в песне аккорды можно найти в разделе Как брать аккорды. Аккорды для шестиструнной гитары. Другие песни можно найти на нашем сайте, воспользовавшись алфавитным указателем вверху страницы.


 
Ошибка в тексте? Выделите ошибку и нажмите Ctrl+Enter