Вступление:
 ---------------|
 ---------------|
 ------7-6-7----|
 ---7--7-6-7--7-| х2
 ---7--5-4-5--7-|
 ---5---------5-|
 Куплет(1-й играется быстрыи переборчиком, но можно сразу боем как во 2-м):
 --------------------|   -----------------------|
 --------------------|   -----------------------|
 ---------------7----|   ---------------5-------|
 ---7-----5-----7----|х2 --5-----7------5-----3-|
 ---7-----5-----5----|   --5-----7------3-----3-|
 ---5-----3----------|   --3-----5------------1-|
 О Боже - нудных слов     На самом деле - соплей
----------------|
----------------|
----------------|
--5------7------|
--5------7------|
--3------5------|
 Я тебе - рублей
 Припев:
 -------------------------|     -------------------|
 -------------------------|     -------------------|
 ---7---------------------|     ---5-----7-----9---|
 ---7-----5-----2-----7---|     -------------------|
 ---5-----5-----2-----7---| x3  ---3-----5-----7---|
 ---------3-----0-----5---|     -------------------|
 Я тебя люблю - мой альбом                 Моя нежность - ком


Текст, аккорды и табулатура для песни "Я Тебя Люблю", исполняет "Тараканы".
Используемые в песне аккорды можно найти в разделе Как брать аккорды. Аккорды для шестиструнной гитары. Другие песни можно найти на нашем сайте, воспользовавшись алфавитным указателем вверху страницы.


Слушать онлайн Я тебя люблю?


Тараканы!Я тебя люблю? на Яндекс.Музыке


 
Ошибка в тексте? Выделите ошибку и нажмите Ctrl+Enter