Song: Poem
Artst: Taproot

This song can be played on a 6 or 7 string guitar.
Since I have a 7 string, Ill giv the 7 string version, but
you can use a 6 string just as easy.

Tuning(7 string):A-E-A-D-G-B-E, (6 string: A-E-A-D-G-B)
(Intro/Chous)Clean
E-----------------------------------------------------------------
B-----------------------------------------------------------------
G-----------------------------------------------------------------
D--9-9-9--5-5-5-5-5-5-x-12-12-12-x-7-7-7-7-7-7--9-9-9--5-5-5-5-5-5
A--9-9-9--5-5-5-5-5-5-x-12-12-12-x-7-7-7-7-7-7--9-9-9--5-5-5-5-5-5
E--7-7-7--3-3-3-3-3-3-x-10-10-10-x-5-5-5-5-5-5--7-7-7--3-3-3-3-3-3
A-----------------------------------------------------------------

(Verse)(Distortion)       
E-----------------------:---------------------------------------
B-----------------------:---------------------------------------
G-----------------------:---------------------------------------
D--5/7-7-7--5/7-7-7--8-8:-----------------------(repete this 4x)
A--x-x-x-x--x-x-x-x--x-x:--0h2-2-2--0h2-2-2--3-3----------------
E--3/5-5-5--3/5-5-5--6-6:--0h2-2-2--0h2-2-2--3-3----------------
A-----------------------:--0h2-2-2--0h2-2-2--3-3----------------


(Fill 1)
E--------------------------:
B--------------------------:
G--------------------------:
D--5/7-7-7--5/7-7-7--10-10-:
A--x-x-x-x--x-x-x-x---x--x-:
E--3/5-5-5--3/5-5-5---8--8-:
A--------------------------:

(Verse repete 4x)         (Then go into this 4x)
E-----------------------:---------------------------------------
B-----------------------:---------------------------------------
G-----------------------:---------------------------------------
D--5/7-7-7--5/7-7-7--8-8:-----------------------(repete this 4x)
A--x-x-x-x--x-x-x-x--x-x:--0h2-2-2--0h2-2-2--3-3----------------
E--3/5-5-5--3/5-5-5--6-6:--0h2-2-2--0h2-2-2--3-3----------------
A-----------------------:--0h2-2-2--0h2-2-2--3-3----------------

(Chorus-Distortion)
E-----------------------------------------------------------------
B-----------------------------------------------------------------
G-----------------------------------------------------------------
D--9-9-9--5-5-5-5-5-5-x-12-12-12-x-7-7-7-7-7-7--9-9-9--5-5-5-5-5-5
A--9-9-9--5-5-5-5-5-5-x-12-12-12-x-7-7-7-7-7-7--9-9-9--5-5-5-5-5-5
E--7-7-7--3-3-3-3-3-3-x-10-10-10-x-5-5-5-5-5-5--7-7-7--3-3-3-3-3-3
A-----------------------------------------------------------------

E-----------------------
B-----------------------
G-----------------------
D--5/7-7-7--5/7-7-7--8-8
A--x-x-x-x--x-x-x-x--x-x
E--3/5-5-5--3/5-5-5--6-6
A-----------------------

E-----------------------------------------------------------------
B-----------------------------------------------------------------
G-----------------------------------------------------------------
D--9-9-9--5-5-5-5-5-5-x-12-12-12-x-7-7-7-7-7-7--9-9-9--5-5-5-5-5-5
A--9-9-9--5-5-5-5-5-5-x-12-12-12-x-7-7-7-7-7-7--9-9-9--5-5-5-5-5-5
E--7-7-7--3-3-3-3-3-3-x-10-10-10-x-5-5-5-5-5-5--7-7-7--3-3-3-3-3-3
A-----------------------------------------------------------------

E-----------------------
B-----------------------
G-----------------------
D--5/7-7-7--5/7-7-7--8-8
A--x-x-x-x--x-x-x-x--x-x
E--3/5-5-5--3/5-5-5--6-6
A-----------------------

E-----------------------------------------------------------------
B-----------------------------------------------------------------
G-----------------------------------------------------------------
D--9-9-9--5-5-5-5-5-5-x-12-12-12-x-7-7-7-7-7-7--9-9-9--5-5-5-5-5-5
A--9-9-9--5-5-5-5-5-5-x-12-12-12-x-7-7-7-7-7-7--9-9-9--5-5-5-5-5-5
E--7-7-7--3-3-3-3-3-3-x-10-10-10-x-5-5-5-5-5-5--7-7-7--3-3-3-3-3-3
A-----------------------------------------------------------------

E-----------------------
B-----------------------
G-----------------------
D--5/7-7-7--5/7-7-7--8-8
A--x-x-x-x--x-x-x-x--x-x
E--3/5-5-5--3/5-5-5--6-6
A-----------------------


(Verse repete 4x)         (Then go into this 4x)
E-----------------------:---------------------------------------
B-----------------------:---------------------------------------
G-----------------------:---------------------------------------
D--5/7-7-7--5/7-7-7--8-8:-----------------------(repete this 4x)
A--x-x-x-x--x-x-x-x--x-x:--0h2-2-2--0h2-2-2--3-3----------------
E--3/5-5-5--3/5-5-5--6-6:--0h2-2-2--0h2-2-2--3-3----------------
A-----------------------:--0h2-2-2--0h2-2-2--3-3----------------

E-----------------------------------------------------------------
B-----------------------------------------------------------------
G-----------------------------------------------------------------
D--9-9-9--5-5-5-5-5-5-x-12-12-12-x-7-7-7-7-7-7--9-9-9--5-5-5-5-5-5
A--9-9-9--5-5-5-5-5-5-x-12-12-12-x-7-7-7-7-7-7--9-9-9--5-5-5-5-5-5
E--7-7-7--3-3-3-3-3-3-x-10-10-10-x-5-5-5-5-5-5--7-7-7--3-3-3-3-3-3
A-----------------------------------------------------------------

E-----------------------
B-----------------------
G-----------------------
D--5/7-7-7--5/7-7-7--8-8
A--x-x-x-x--x-x-x-x--x-x
E--3/5-5-5--3/5-5-5--6-6
A-----------------------

E-----------------------------------------------------------------
B-----------------------------------------------------------------
G-----------------------------------------------------------------
D--9-9-9--5-5-5-5-5-5-x-12-12-12-x-7-7-7-7-7-7--9-9-9--5-5-5-5-5-5
A--9-9-9--5-5-5-5-5-5-x-12-12-12-x-7-7-7-7-7-7--9-9-9--5-5-5-5-5-5
E--7-7-7--3-3-3-3-3-3-x-10-10-10-x-5-5-5-5-5-5--7-7-7--3-3-3-3-3-3
A-----------------------------------------------------------------

E-----------------------
B-----------------------
G-----------------------
D--5/7-7-7--5/7-7-7--8-8
A--x-x-x-x--x-x-x-x--x-x
E--3/5-5-5--3/5-5-5--6-6
A-----------------------

E:--------------------------------------------------
B:--------------------------------------------------
G:--------------------------------------------------
D:-----------------------(Repete this 4 times-------
A:--0h2-2-2--0h2-2-2--0h2-2-2--0h2-2-2--0h2-2-2--3-3
E:--0h2-2-2--0h2-2-2--0h2-2-2--0h2-2-2--0h2-2-2--3-3
A:--0h2-2-2--0h2-2-2--0h2-2-2--0h2-2-2--0h2-2-2--3-3

E-----------------------------------------------------------------
B-----------------------------------------------------------------
G-----------------------------------------------------------------
D--9-9-9--5-5-5-5-5-5-x-12-12-12-x-7-7-7-7-7-7--9-9-9--5-5-5-5-5-5
A--9-9-9--5-5-5-5-5-5-x-12-12-12-x-7-7-7-7-7-7--9-9-9--5-5-5-5-5-5
E--7-7-7--3-3-3-3-3-3-x-10-10-10-x-5-5-5-5-5-5--7-7-7--3-3-3-3-3-3
A-----------------------------------------------------------------

E-----------------------
B-----------------------
G-----------------------
D--5/7-7-7--5/7-7-7--8-8
A--x-x-x-x--x-x-x-x--x-x
E--3/5-5-5--3/5-5-5--6-6
A-----------------------

                        /(kick in the distortion RIGHT HERE)
E-----------------------------------------------------------------
B-----------------------------------------------------------------
G-----------------------------------------------------------------
D--9-9-9--5-5-5-5-5-5-x-12-12-12-x-7-7-7-7-7-7--9-9-9--5-5-5-5-5-5
A--9-9-9--5-5-5-5-5-5-x-12-12-12-x-7-7-7-7-7-7--9-9-9--5-5-5-5-5-5
E--7-7-7--3-3-3-3-3-3-x-10-10-10-x-5-5-5-5-5-5--7-7-7--3-3-3-3-3-3
A-----------------------------------------------------------------

E-----------------------
B-----------------------
G-----------------------
D--5/7-7-7--5/7-7-7--8-8
A--x-x-x-x--x-x-x-x--x-x
E--3/5-5-5--3/5-5-5--6-6
A-----------------------

E-----------------------------------------------------------------
B-----------------------------------------------------------------
G-----------------------------------------------------------------
D--9-9-9--5-5-5-5-5-5-x-12-12-12-x-7-7-7-7-7-7--9-9-9--5-5-5-5-5-5
A--9-9-9--5-5-5-5-5-5-x-12-12-12-x-7-7-7-7-7-7--9-9-9--5-5-5-5-5-5
E--7-7-7--3-3-3-3-3-3-x-10-10-10-x-5-5-5-5-5-5--7-7-7--3-3-3-3-3-3
A-----------------------------------------------------------------

E-----------------------
B-----------------------
G-----------------------
D--5/7-7-7--5/7-7-7--8-8
A--x-x-x-x--x-x-x-x--x-x
E--3/5-5-5--3/5-5-5--6-6
A-----------------------

E-----------------------
B-----------------------
G-----------------------
D--5/7-7-7--5/7-7-7--8-8
A--x-x-x-x--x-x-x-x--x-x(4times)
E--3/5-5-5--3/5-5-5--6-6
A-----------------------

E---------
B---------
G---------
D---------
A-2-2-2-2~
E-2-2-2-2~
A-2-2-2-2~


Текст, аккорды и табулатура для песни "Poem", исполняет "Taproot".
Используемые в песне аккорды можно найти в разделе Как брать аккорды. Аккорды для шестиструнной гитары. Другие песни можно найти на нашем сайте, воспользовавшись алфавитным указателем вверху страницы.


 
Ошибка в тексте? Выделите ошибку и нажмите Ctrl+Enter