taproot
poem


intro:

E|----------------------------------------------------------------
B|----------------------------------------------------------------
G|----------------------------------------------------------------
D|--4-4--5-55--7-7--7-7--4-4--5-5---------------------10----------
A|--2-2--5-55--5-5--7-7--2-2--5-5---7/9-9-x-7/9--x-x--10----------
E|-------3-33-------5-5-------3-5---5/7-7-x-5/7--x-x--8-----------

heavy distortion

E|------------------------------
B|------------------------------
G|------------------------------
D|--0--4-4-x--0--4-4--x--5------
A|--0--4-4-x--0--4-4--x--5------
E|--0--2-2-x--0--2-2--x--3------

verse:

E|-------------------------------
B|-------------------------------
G|-------------------------------
D|-------------------------------
A|--7/9-9-x-7/9-9--x-x--10-------
E|--5/7-7-x-5/7-7--x-x--8--------

chorus:

E|----------------------------------------------------------------
B|----------------------------------------------------------------
G|----------------------------------------------------------------
D|--4-4--5-55--7-7--7-7--4-4--5-5---------------------10----------
A|--2-2--5-55--5-5--7-7--2-2--5-5---7/9-9-x-7/9--x-x--10----------
E|-------3-33-------5-5-------3-5---5/7-7-x-5/7--x-x--8-----------


bridge: heavy distoriton

E|--------------------------------------------
B|--------------------------------------------
G|--------------------------------------------
D|--4-4-----------4-4-4------------4-4-4------
A|--4-4-----------4-4-4------------4-4-4------
E|--2-2-----------2-2-2------------2-2-2------

end on:

E|--------
B|--------
G|--------
D|--4-4---
A|--4-4---
E|--2-2---

thats it. theirs probobly things wrong with it. let me now what u think of it.


Текст, аккорды и табулатура для песни "Poem", исполняет "Taproot".
Используемые в песне аккорды можно найти в разделе Как брать аккорды. Аккорды для шестиструнной гитары. Другие песни можно найти на нашем сайте, воспользовавшись алфавитным указателем вверху страницы.


 
Ошибка в тексте? Выделите ошибку и нажмите Ctrl+Enter