I- Taproot
-------------------------------------------------------------------------------

By:

e|---------------------------------------------------------------------------|
B|---------------------------------------------------------------------------|
G|-----------4-------------------4-------------------------------------------|
D|-----0-----------0-------2-----------2----0-0------------------------------|
A|--2-----2-----2-------0-----0-----0----------------------------------------|
E|---------------------------------------------------------------------------|

e|---------------------------------------------------------------------------|
B|---------------------------------------------------------------------------|
G|-----------4-----------4------------------4-----------4--------------------|
D|-----0-----------0-------0-0--------2-----------2--------0-0---------------|
A|--2-----2-----2-----2------------0-----0-----0-----0-----------------------|
E|---------------------------------------------------------------------------|

e|---------------------------------------------------------------------------|
B|---------------------------------------------------------------------------|
G|-----------4-----------4------------------4-----------4--------------------|
D|-----0-----------0-------0-0--------2-----------2--------0-0---------------|
A|--2-----2-----2-----2------------0-----0-----0-----0-----------------------|
E|---------------------------------------------------------------------------|

e|---------------------------------------------------------------------------|
B|---------------------------------------------------------------------------|
G|-----------4-----------4------------------4-----------4--------------------|
D|-----0-----------0-------0-0--------2-----------2--------0-0---------------|
A|--2-----2-----2-----2------------0-----0-----0-----0-----------------------|
E|---------------------------------------------------------------------------|

e|---------------------------------------------------------------------------|
B|---------------------------------------------------------------------------|
G|-----------4-----------4------------------4-----44444444-------------------|
D|-----0-----------0-------0-0--------2-----------22222222-------------------|
A|--2-----2-----2-----2------------0-----0-----0-----------------------------|
E|---------------------------------------------------------------------------|

e|---------------------------------------------------------------------------|
B|---------------------------------------------------------------------------|
G|---------------------------------------------------------------------------|
D|--4444444444444444----2222222222222222---4444444444444444--2222222222222222|
A|--2222222222222222----0000000000000000---2222222222222222--0000000000000000|
E|---------------------------------------------------------------------------|

e|---------------------------------------------------------------------------|
B|---------------------------------------------------------------------------|
G|-----------4-----------4------------------4-----------4--------------------|
D|-----0-----------0-------0-0--------2-----------2--------0-0---------------|
A|--2-----2-----2-----2------------0-----0-----0-----0-----------------------|
E|---------------------------------------------------------------------------|

e|---------------------------------------------------------------------------|
B|---------------------------------------------------------------------------|
G|-----------4-----------4------------------4-----------4--------------------|
D|-----0-----------0-------0-0--------2-----------2--------0-0---------------|
A|--2-----2-----2-----2------------0-----0-----0-----0-----------------------|
E|---------------------------------------------------------------------------|

e|---------------------------------------------------------------------------|
B|---------------------------------------------------------------------------|
G|-----------4-----------4------------------4-----------4--------------------|
D|-----0-----------0-------0-0--------2-----------2--------0-0---------------|
A|--2-----2-----2-----2------------0-----0-----0-----0-----------------------|
E|---------------------------------------------------------------------------|

e|---------------------------------------------------------------------------|
B|---------------------------------------------------------------------------|
G|-----------4-----------4------------------4------444444--------------------|
D|-----0-----------0-------0-0--------2------------222222--------------------|
A|--2-----2-----2-----2------------0-----0-----0-----------------------------|
E|---------------------------------------------------------------------------|

e|---------------------------------------------------------------------------|
B|---------------------------------------------------------------------------|
G|-----------7-7-7-7------------6-6-6-6------------7-7-7-7---------6-6-7-6---|
D|-44444444--x-x-x-x--22222222--x-x-x-x--44444444--x-x-x-x--22222--x-x-x-x---|
A|-22222222--5-5-5-5--00000000--4-4-4-4--22222222--5-5-5-5--00000--4-4-5-4---|
E|---------------------------------------------------------------------------|

e|---------------------------------------------------------------------------|
B|---------------------------------------------------------------------------|
G|---------------------------------------------------------------------------|
D|4444444444444444---77777777777---2222222222222222222222222-----------------|
A|2222222222222222---55555555555---0000000000000000000000000-----------------|
E|---------------------------------------------------------------------------|

e|---------------------------------------------------------------------------|
B|---------------------------------------------------------------------------|
G|---------------------------------------------------------------------------|
D|4444444444444444---77777777777---2222222222222222222222222-----------------|
A|2222222222222222---55555555555---0000000000000000000000000-----------------|
E|---------------------------------------------------------------------------|

e|---------------------------------------------------------------------------|
B|---------------------------------------------------------------------------|
G|-----------4-----------4------------------4-----------4--------------------|
D|-----0-----------0-------0-0--------2-----------2--------0-0---------------|
A|--2-----2-----2-----2------------0-----0-----0-----0-----------------------|
E|---------------------------------------------------------------------------|

e|---------------------------------------------------------------------------|
B|---------------------------------------------------------------------------|
G|-----------4-----------4------------------4-----4--------------------------|
D|-----0-----------0-------0-0--------2--------------------------------------|
A|--2-----2-----2-----2------------0-----0-----0-----------------------------|
E|---------------------------------------------------------------------------|

e|---------------------------------------------------------------------------|
B|---------------------------------------------------------------------------|
G|-----------4-----------4------------------4-----------4--------------------|
D|-----0-----------0-------0-0--------2-----------2--------0-0---------------|
A|--2-----2-----2-----2------------0-----0-----0-----0-----------------------|
E|---------------------------------------------------------------------------|

e|---------------------------------------------------------------------------|
B|---------------------------------------------------------------------------|
G|-----------4-----------4------------------4-----444444---------------------|
D|-----0-----------0-------0-0--------2-----------222222---------------------|
A|--2-----2-----2-----2------------0-----0-----0-----------------------------|
E|---------------------------------------------------------------------------|

e|---------------------------------------------------------------------------|
B|---------------------------------------------------------------------------|
G|-----------7-7-7-7------------6-6-6-6------------7-7-7-7---------6-6-7-6---|
D|-44444444--x-x-x-x--22222222--x-x-x-x--44444444--x-x-x-x--22222--x-x-x-x---|
A|-22222222--5-5-5-5--00000000--4-4-4-4--22222222--5-5-5-5--00000--4-4-5-4---|
E|---------------------------------------------------------------------------|

e|---------------------------------------------------------------------------|
B|---------------------------------------------------------------------------|
G|---------------------------------------------------------------------------|
D|4444444444444444---77777777777---2222222222222222222222222-----------------|
A|2222222222222222---55555555555---0000000000000000000000000-----------------|
E|---------------------------------------------------------------------------|

e|---------------------------------------------------------------------------|
B|---------------------------------------------------------------------------|
G|---------------------------------------------------------------------------|
D|4444444444444444---77777777777---2222222222222222222222222-----------------|
A|2222222222222222---55555555555---0000000000000000000000000-----------------|
E|---------------------------------------------------------------------------|

e|---------------------------------------------------------------------------|
B|---------------------------------------------------------------------------|
G|---------------------------------------------------------------------------|
D|4444444444444444---77777777777---2222222222222222222222222-----------------|
A|2222222222222222---55555555555---0000000000000000000000000-----------------|
E|---------------------------------------------------------------------------|

e|---------------------------------------------------------------------------|
B|---------------------------------------------------------------------------|
G|---------------------------------------------------------------------------|
D|4444444444444444---77777777777---2222222222222222222222222-----------------|
A|2222222222222222---55555555555---0000000000000000000000000-----------------|
E|---------------------------------------------------------------------------|

e|---------------------------------------------------------------------------|
B|---------------------------------------------------------------------------|
G|---------------------------------------------------------------------------|
D|4--------------2--------4------------2--------4-------2--------4-------2---|
A|2--------------0--------2------------0--------2-------0--------2-------0---|
E|---------------------------------------------------------------------------|

e|---------------------------------------------------------------------------|
B|---------------------------------------------------------------------------|
G|---------------------------------------------------------------------------|
D|4----------2---------4----------2------------------------------------------|
A|2----------0---------2----------0------------------------------------------|
E|---------------------------------------------------------------------------|

e|---------------------------------------------------------------------------|
B|---------------------------------------------------------------------------|
G|4444444444444444---77777777777---2222222222222222222222222-----------------|
D|xxxxxxxxxxxxxxxx---xxxxxxxxxxx---xxxxxxxxxxxxxxxxxxxxxxxxx-----------------|
A|2222222222222222---55555555555---0000000000000000000000000-----------------|
E|---------------------------------------------------------------------------|

e|---------------------------------------------------------------------------|
B|---------------------------------------------------------------------------|
G|4444444444444444---77777777777---2222222222222222222222222-----------------|
D|xxxxxxxxxxxxxxxx---xxxxxxxxxxx---xxxxxxxxxxxxxxxxxxxxxxxxx-----------------|
A|2222222222222222---55555555555---0000000000000000000000000-----------------|
E|---------------------------------------------------------------------------|

e|---------------------------------------------------------------------------|
B|---------------------------------------------------------------------------|
G|4444444444444444---77777777777---2222222222222222222222222-----------------|
D|xxxxxxxxxxxxxxxx---xxxxxxxxxxx---xxxxxxxxxxxxxxxxxxxxxxxxx-----------------|
A|2222222222222222---55555555555---0000000000000000000000000-----------------|
E|---------------------------------------------------------------------------|

e|---------------------------------------------------------------------------|
B|---------------------------------------------------------------------------|
G|4444444444444444---77777777777---2222222222222222222222222-----------------|
D|xxxxxxxxxxxxxxxx---xxxxxxxxxxx---xxxxxxxxxxxxxxxxxxxxxxxxx-----------------|
A|2222222222222222---55555555555---0000000000000000000000000-----------------|
E|---------------------------------------------------------------------------|


Текст, аккорды и табулатура для песни "I", исполняет "Taproot".
Используемые в песне аккорды можно найти в разделе Как брать аккорды. Аккорды для шестиструнной гитары. Другие песни можно найти на нашем сайте, воспользовавшись алфавитным указателем вверху страницы.


 
Ошибка в тексте? Выделите ошибку и нажмите Ctrl+Enter