Song: Fault
Artist: Taproot
Album: Welcome
Tabber: YugoPunk ([email protected])

I think this song has a great guitar part to it and nobody’s tabbed
it yet so I figured it out for you guys.

Drop-D Tuning (DADGBE)

Intro
E------------------------------------------------|
B------------------------------------------------|
G------------------------------------------------|
D--2--~~~~~~~~~~~~~let ring~~~~~~~~~~------------|
A--0--~~~~~~~~~~~and hit again~~~~~~~------------|
D--2--~~~~~~~~~~~from time to time~~~------------|

Riff 1 (Chorus Part 2)
E------------------------------------------------|
B------------------------------------------------|
G------------------------------------------------|
D-0---------------3---0---------------3-2--------| repeat once
A-0---------------3---0---------------3-0--------|
D—0p12h10-0p5h7-0p3—--0p12h10-0p5h7-0p3-2--------|

Verse Riff 1
E------------------------------------------------|
B------------------------------------------------|
G------------------------------------------------|
D---7-77—3-3--5-555-55------repeat---------------|
A---7-77-3-3--5-555-55----throughout-------------|
D---7-77-3-3--5-555-55------verse----------------|

Verse Riff 2
E------------------------------------------------|
B------------------------------------------------|
G-------9-----7-----5-----7----------------------|
D------7-----5-----3-----5-----------------------|
A-----7-----5-----3-----5------------------------|
D--7------5-----3-----5--------------------------| repeat 4x

Chorus Part 1
E------------------------------------------------|
B------------------------------------------------|
G------------------------------------------------|
D---0---2---3---5--------------------------------| listen to
A---0---2---3---5--------------------------------| the song
D---0---2---3---5--------------------------------| for rhythm

Bridge/Interlude
E------------------------------------------------|
B--3---5---6---8-------once again----------------|
G--x---x---x---x------listen to the--------------|
D--0---2---3---5-------song for the--------------|
A-------------------------rhythm-----------------|
D------------------------------------------------|

Then right after he screams “I KNOW THIS IS MY FAULT!”
E------------------------------------------------|
B----------------------3---5---6---7-------------|
G--2---4---5---7-------2---4---5---6-------------|
D--0---2---3---5-------0---2---3---5-------------|
A--0---2---3---5—x2----0---2---3---5-------------|
D--0---2---3---5-------0---2---3---5-------------|

Then back to the Chorus Part 1 and then Part 2 and it ends.

E-mail me with questions or comments. [email protected]


Текст, аккорды и табулатура для песни "Fault", исполняет "Taproot".
Используемые в песне аккорды можно найти в разделе Как брать аккорды. Аккорды для шестиструнной гитары. Другие песни можно найти на нашем сайте, воспользовавшись алфавитным указателем вверху страницы.


 
Ошибка в тексте? Выделите ошибку и нажмите Ctrl+Enter