i tabbed this with a 5 string... at standard tuning (B E A D G)

the song is played in Eb so if u have a 4 string tune to standard Eb (Eb Ab Db Gb)
and play all the 4's on the B string as 0pen on the Eb and play the other strings up a fret
(play 2 as 3) :-D

nice song... good bass... hope u enjoy :-D


(00:38)
G|-------------------------------------------------------------------------|
D|-------------------------------------------------------------------------|
A|-----------------------------------------------------------------------|x2
E|-2----------------6------------------------------------------------------|
B|-------------------------------------------------------------------------|

G|-------------------------------------------------------------------------|
D|-------------------------------------------------------------------------|
A|-------------------------------------------------------------------------|
E|-4----------------2------------------------------------------------------|
B|-------------------------------------------------------------------------|

(01:14)
G|-------------------------------------------------------------------------|
D|-------------------------------6-----------------------------------------|
A|-----------------------------4-------------------------------------------|
E|-22222222222222/86-6-x-4-44-----1-1-x-2-2-22-2/6------------------------|
B|-------------------------------------------------------------------------|

G|-------------------------------------------------------------------------|
D|--------------6----------------------------------------------------------|
A|------------4----------------------------------------------------------|x2
E|-6-6-x-4-44-----1-1-x-2-2-22-2/6-----------------------------------------|
B|-------------------------------------------------------------------------|

G|-------------------------------------------------------------------------|
D|--------------6----------------------------------------------------------|
A|------------4------------------------------------------------------------|
E|-6-6-x-4-44-----1-1-x-2-2-22-2/6~ring~-----------------------------------|
B|-------------------------------------------------------------------------|

(01:56)
G|-------------------------------------------------------------------------|
D|-------------------------------------------------------------------------|
A|-----------------------------------------------------------------------|x2
E|-2----------------6------------------------------------------------------|
B|-------------------------------------------------------------------------|

G|-------------------------------------------------------------------------|
D|-------------------------------------------------------------------------|
A|-------------------------------------------------------------------------|
E|-4----------------2------------------------------------------------------|
B|-------------------------------------------------------------------------|

(02:32)
G|-------------------------------------------------------------------------|
D|-------------------------------6-----------------------------------------|
A|-----------------------------4-------------------------------------------|
E|-22222222222222/86-6-x-4-44-----1-1-x-2-2-22-2/6------------------------|
B|-------------------------------------------------------------------------|

G|-------------------------------------------------------------------------|
D|--------------6----------------------------------------------------------|
A|------------4----------------------------------------------------------|x3
E|-6-6-x-4-44-----1-1-x-2-2-22-2/6-----------------------------------------|
B|-------------------------------------------------------------------------|

(03:00)
G|-------------------------------------------------------------------------|
D|-------------------------------------------------------------------------|
A|-----------------------------------------------------------------------|x6
E|-6-6-x-4-4-4------2222-44------------------------------------------------|
B|-------------4444--------------------------------------------------------|

(03:38) REST

(03:52)
G|-------------------------------------------------------------------------|
D|--------------6----------------------------------------------------------|
A|------------4----------------------------------------------------------|x3
E|-6-6-x-4-44-----1-1-x-2-2-22-2/6-----------------------------------------|
B|-------------------------------------------------------------------------|

G|-------------------------------------------------------------------------|
D|--------------6----------------------------------------------------------|
A|------------4------------------------------------------------------------|
E|-6-6-x-4-44----------2222-44---------------------------------------------|
B|----------------4444-----------------------------------------------------|

x is dead note
/ slide up
 slide down


Текст, аккорды и табулатура для песни "Mourning", исполняет "Tantric".
Используемые в песне аккорды можно найти в разделе Как брать аккорды. Аккорды для шестиструнной гитары. Другие песни можно найти на нашем сайте, воспользовавшись алфавитным указателем вверху страницы.


 
Ошибка в тексте? Выделите ошибку и нажмите Ctrl+Enter