Solo(играют в начале песни и после каждого припева):
e--------8--7-5--------------5--------------
H|-8--7-5---8--7-5-----------5-8-7-5-7-7---------------

Вообще-то это соло играется по-видимому на рояле, но в отсутствии такового 
можно сыграть и на гитаре.

Иногда еще после припева играют нечто такое:
e|--7--5--7-5--7--5--7-5--7--5--7-5--7--5--7-5--

Эта песня довольно красиво играется в две гитары.
В этом случае одна гитара играет аккорды (написаны над текстом) легким боем, 
а вторая примерно следующее:

e-------2-----2-----2---
H|-0-----0-----0------3-----3-----3-
G|---0-----0-----0------2-----2-----
D2----------------------
A-----------------------
E-----------------------

e-------2-----3-----2---
H|-1-----1-----1------3-----3-----3-
G|---0-----0-----0------2-----2-----
D2----------------------
A-----------------------
E-----------------------

 Em           D 
Неизбежные, тучи снежные
 C             D 
Нависают над нашим городом
Все попрятались двери на замках
Окна черные дышат холодом
Разноцветные звезды звездочки
Постучались к нам в наши форточки
Заструился дым, побежали дни
Ты не веришь, мне я не верю им

Припев:
   Em     C   Am     D     
  Тише воды, ниже воды
   Em       C          Am
  Среди звенящей пустоты
            D          Em C Am
  Не видя снов и красоты
          D 
  Зимуем Мы

Безответные, письма с ветрами
Не заметные дни с вечерами
Перепутались, переплелись
Поднимаясь вверх, опустились вниз

Разноцветные звезды звездочки
Постучались к нам в наши форточки
Заструился дым, побежали дни
Ты не веришь, мне я не верю им


Текст, аккорды и табулатура для песни "Зима", исполняет "Танцы Минус".
Используемые в песне аккорды можно найти в разделе Как брать аккорды. Аккорды для шестиструнной гитары. Другие песни можно найти на нашем сайте, воспользовавшись алфавитным указателем вверху страницы.


 
Ошибка в тексте? Выделите ошибку и нажмите Ctrl+Enter