Intro:
Riff1 (2 раза):
E--------------------------------------|
H----1---------------------------------|
G|-------7/3--------------------0-------------2----|
D|----7-------------3----------------------2-----2-|
A|-5----------1--------1-----3-----3/0--0----------|
E-------------1------------------------|

 Riff 1.
У ночного огня
Под огромной луной
Темный лес укрывал
Нас зеленой листвой
Я тебя целовал
У ночного огня
            Hm  G  D  F#  Hm (Все аккорды лучше брать на барре , кроме D)

Я тебе подарил
Половинку себя 

Hm        G      D           F#      Hm
  Свет далекой звезды песни птиц до утра,
  Ты смотрела в глаза мои шептала слова,
  Ты не верила мне но любила меня, 
  Я оставил с тобой половинку себя

  То что было забыто то что было прошло,
  Ты махала мне в след бирюзовым платком,
  Я тебя целовал у ночного огня, 
  Ты оставила мне половинку меня

   
Solo:
E--------------------------------------------|
H--------------------------------------------|
G|-7--7---7b10r7---------7b10r7---------7b10r7-----------|
D-----10--7----------10--7----------10--7--10|
A--------------------------------------------|
E--------------------------------------------|


Текст, аккорды и табулатура для песни "Половинка", исполняет "Танцы Минус".
Используемые в песне аккорды можно найти в разделе Как брать аккорды. Аккорды для шестиструнной гитары. Другие песни можно найти на нашем сайте, воспользовавшись алфавитным указателем вверху страницы.


 
Ошибка в тексте? Выделите ошибку и нажмите Ctrl+Enter