Verse:
E -----------------------|
B -----3-----1-----------|
G ---2---2---------|-----0-------2---|
D -0-----------3---2-----|
A ---------1-----1-|---3---3-0-----0-|
E -----------------|-1---------------|

Dm     Bb       F       A           Dm
  У ночного огня, под огромной луной,
         Bb         F      A            Dm
  Темный лес укрывал нас зеленой листвой,
      Bb       F      A        Dm
  Я тебя целовал у ночного огня,
      Bb        F A Dm Bb F    A
  Я тебе подарил...     ...половинку себя.


  Свет далекой звезды, песни птиц до утра,
  Ты смотрела в глаза мои, шептала слова, 
  Ты не верила мне, но любила меня, 
  Я оставил с тобой... ...половинку себя.

  То, что было, забыто, то, что было, прошло.
  Ты махала мне вслед бирюзовым платком,
  Я тебя целовал у ночного огня, 
  Ты оставила мне... ...половинку меня.

Solo:
E -------0---------0-|---------0-------------|
B -3-3-3---3-1-3-3---|-3-1-3-3---3-1-3-1---1-|
G ---------------------------2---|
D -------------------------------|
A -------------------------------|
E -------------------------------|


Текст, аккорды и табулатура для песни "Половинка", исполняет "Танцы Минус".
Используемые в песне аккорды можно найти в разделе Как брать аккорды. Аккорды для шестиструнной гитары. Другие песни можно найти на нашем сайте, воспользовавшись алфавитным указателем вверху страницы.


 
Ошибка в тексте? Выделите ошибку и нажмите Ctrl+Enter