Intro:

Riff 1
   Dm         A#        F        Am
G-----------------------------|
D|-----12-------10----------5--------7----|      x2
A|---12---12------8------3---3/---7---7/-|
E|-10---------6------6-1--------5--------|

Если настроить гитару на пол тона выше, то играть будет легче!

Verse1:

   Dm         A#        F        Am
G-----------------------------|   
D|-----12-------10----------5--------7----|   
A|---12---12------8------3---3/---7---7/-|   
E|-10---------6------6-1--------5--------|   
       У ночного огня под огромной луной   ... 


                        w/distortion
   Dm         A#        F5       A5         D5      A#5     F5
G--------------------2--------|-7-------3-----------------------|
D|-----12-------10------3--------2--------|-7-------3-------3---------------|
A|---12---12------8----3--------0--------|-5-------1-------3---------------|
E|-10---------6------6-1-----------------------1---------------|
...    Я тебе подарил                                          половинку себя



Verse2&3:

боем 
Dm   A#      F         Am
 У ночного огня, под огромной луной,
 Темный лес укрывал нас зеленой листвой.
 Я тебя целовал у ночного огня,
Dm   A#     F5    A5   D5   A#5   F5 
 Я тебе подарил                        половинку себя

Solo

  D5      A#             F5            Am               
G|7---7~--7h9p7--7---7h9p7--7---7h9p7--7--------|  
D--10---------10---------10-10-7-10-|


Текст, аккорды и табулатура для песни "Половинка", исполняет "Танцы Минус".
Используемые в песне аккорды можно найти в разделе Как брать аккорды. Аккорды для шестиструнной гитары. Другие песни можно найти на нашем сайте, воспользовавшись алфавитным указателем вверху страницы.


 
Ошибка в тексте? Выделите ошибку и нажмите Ctrl+Enter