Intro: Dm, B, Gm, A

Dm      B             Gm         A
Я шагаю по проспекту, по ночному городу.
Dm                   B
Я иду, потому что у меня есть ноги,
Gm                 A
Я умею ходить, и поэтому иду.
 Dm               B
Иду навстречу цветным витринам,
Gm                 A
Мимо пролетают дорогие лимузины.
      Dm                     B
В них женщины проносятся с горящими глазами,
  Gm                    A
Холодными сердцами, золотыми волосами.

Припев:
Gm              A
Город - сказка, город - мечта
 
   Dm                    B
Попадая в его сети - пропадаешь навсегда.
Глотая его вздох простуд и сквозняков,
Запахом бензина и дорогих духов.

Звезд на небе мало, но это не беда
Здесь почти что в каждом доме есть своя и не одна.
Электричество, газ, телефон, водопровод,
Коммунальный рай без хлопот и забот.

Припев 

Дальше соляк:

E|-----|------|-0-1-------0-1-0---|-5-3-5-3-0-|-0-1-------0-1-0---|-5-
B|-----|------|-----3---3-------3-|-----------|-----3---3-------3-|---
G| -----|------|-------2-----------|-----------|-------2-----------|---

E|3-5-3-6-5-|-12-10-5-12-10-12-10-5-3-|-5-3-----0-6-5-0-|-1-3-0-1-3-0-
B|----------|-------------------------|-------2---------|-------------
G|----------|-------------------------|-----2-----------|-------------

E|1-|---3---0-|------|------|------|------|------|------|------|------
B|--|-3---3-2-|------|------|------|------|------|------|------|------
G|--|-------2-|------|------|------|------|------|------|------|------

Припев


Текст, аккорды и табулатура для песни "Город", исполняет "Танцы Минус".
Используемые в песне аккорды можно найти в разделе Как брать аккорды. Аккорды для шестиструнной гитары. Другие песни можно найти на нашем сайте, воспользовавшись алфавитным указателем вверху страницы.


 
Ошибка в тексте? Выделите ошибку и нажмите Ctrl+Enter