СОЛО ДЛЯ АКУСТИЧЕСКОЙ ГИТАРЫ 1 КУПЛЕТ
1струна*/--------------0---------------------0-------
2струна*/--------0-4-----4-2-0---------0-4-----4-2-0-
3струна*/--1-1-3-----1---------3-1-1-3-----1---------
4струна*/--------------------------------------------

-------2-0-----0-------0----------------------------
---4-4-----2-2---4-------4-0-0-4-2-----2-0--------1-
-3-----------------3-3-------------3-3-----0-0-1-3--
----------------------------------------------------
*ОТСЮДА               ИГРАТЬ 3 РАЗА          ДО СЮДА*     
*-1-3-4-4-3-3-1-1-0-1-3---1-3-4-4-3-3-1---1---------*
*-----------------------1---------------4---4-2-1-1-*
*---------------------------------------------------*
*---------------------------------------------------*
ПРОДОЛЖЕНИЕ
-----------------------------------------------
-4-2-----2-1-----2-1-----1---------------------
-----3-3-----0-0-----1-1---3-0-0-3-1-----3-1---
-------------------------------------2-2-----3-
2 КУПЛЕТ
---------1---2-1---------------1---2-1-------1-1-4-2-
-----1-2---------4-2-1-----1-2---------4-2-1---------
-3-3-------3-----------3-3-------3-------------------
-----------------------------------------------------

-----2-1-----2-1-----1---------------------
-4-4-----1-1-----2-2---4-1-1-4-2-------1-3-
---------------------------------2-2-3-----
-------------------------------------------
*ОТСЮДА       ИГРАТЬ 2 РАЗА                ДО СЮДА*
*-3-5-6-6-5-5-3-3-2-3-5---3-5-6-6-5-5-3-1-3-1-----*
*-----------------------3---------------------4-3-*
*-------------------------------------------------*
*-------------------------------------------------*
ПОТОМ
---1---------------------------------------------
-3---4-1-1-4-3-----4-3-----3-1-----1-------1-----
---------------2-2-----3-3-----2-2---3-------3-0-
---------------------------------------4-4-------
3 КУПЛЕТ
---------3---4-3-1-------------3---4-3-1-----3-3-6-4-
-1-1-3-4---1-------4-3-1-1-3-4---1-------4-3---------
-----------------------------------------------------
-----------------------------------------------------

-1-1-4-3-----4-3-----3-1-----1-----------0-5-7-8-8-7-
---------3-3-----4-4-----3-3---4-0-0-1-3-------------
-----------------------------------------------------
-----------------------------------------------------

-7-5-5-4-5-7-0-5-7-8-8-7-7-5-3-5-3-1-0-0-5-7-8-8-7-7-
-----------------------------------------------------
-----------------------------------------------------
-----------------------------------------------------

-5-3-5-3-1-0-0-3-1-----1-0-----1-0-----0-------------
-------------------3-3-----0-0-----1-1---3-0-0-3-1---
---------------------------------------------------1-
-----------------------------------------------------

---------7-9-10-10-9-9-7-7-6-7-9-2-7-9-10-10-9-9-7-5-
---3-1-----------------------------------------------
-1-----2---------------------------------------------
-----------------------------------------------------

-7-5-3-2-2-7-9-10-10-9-9-7-7-6-7-9-2-7-9-10-10-9-9-7-
-----------------------------------------------------
-----------------------------------------------------
-----------------------------------------------------

-5-7-5-3-2-2-5-3-0-0-3-2-----3-2-----2-0-----0-------
-------------------------2-2-----3-3-----2-2---3-----
-------------------------------------------------3-3-
-----------------------------------------------------
     ВСЕ 
-------* 
-5-3-0-* 
-------* 
-------* 
1
Свет озарил мою больную душу,
Нет,твой покой я страстью не нарушу,
Бред,полночный бред терзает сердце мне опять,
О, Эсмиральда, я посмел тебя желать.
Мой тяжкий крест - уродства вечная печать, 
Я состраданье за любовь готов принять,
Нет, горбун отверженный с проклятьем на челе,
Я никогда не буду счастлив на Земле,
И после смерти мне не обрести покой,
Я душу дьяволу продам за ночь с тобой.
2                                    
Рай, обещают рай твои обьятья,
Дай, мне надежду о мое проклятье,             
Знай, греховных мыслей мне сладка слепая власть,        
Безумец прежде я не знал, что значит страсть.
Распутной девкой словно бесом одержим,
Цыганка дерзкая мою сгубила жизнь,
Жаль, судьбы насмешкою я в рясу облачен,
На муки адские навеки обречен,
И после смерти мне не обрести покой,
Я душу дьяволу продам за ночь с тобой.
3
Сон, светлый счастья сон мой Эсмиральда,
Стон, грешной страсти стон мой Эсмиральда,
Он, сорвался с губ и покатился камнем вниз,
Разбилось сердце белокурой флертэниз,
Святая Дева - ты не в силах мне помочь,
Любви запретной не дано мне превозмочь,
Стой, не покидай меня безумная мечта,
Раба в мужчину превращает красота,
И после смерти мне не обрести покой,
Я душу дьяволу продам за ночь с тобой.
И днем и ночью лишь она передо мной,
И не Мадонне я молюсь, а ей одной,
Стой, не покидай меня безумная мечта,
Раба в мужчину превращает красота,
И после смерти мне не обрести покой,
Я душу дьяволу продам за ночь с тобой.
.................За ночь с тобо-о-о-й.


Текст, аккорды и табулатура для песни "Belle", исполняет "Танцы Минус".
Используемые в песне аккорды можно найти в разделе Как брать аккорды. Аккорды для шестиструнной гитары. Другие песни можно найти на нашем сайте, воспользовавшись алфавитным указателем вверху страницы.


 
Ошибка в тексте? Выделите ошибку и нажмите Ctrl+Enter