Taking Back Sunday
You're So Last Summer
tabbed by Sean
[email protected]
This is the correct version for bass. 

standard tuning
x = palm mute
( ) = ghost note


INTRO x4
G|------------------------|
D|------------------------|
A|--444--555555555555--0--|
E|------------------------|
    xxx  xxxxxxxxxxxx  x


VERSE
G|------------------------------
D|------------------------------
A|--444--555555555555--0--------
E|------------------------------
    xxx  xxxxxxxxxxxx  x
She said don't
don't let it go to your head

FILL
G|---------11--9--11----11----11--------|
D|--------------------------------------|
A|--------------------------------------|
E|--------------------------------------|

--------------------------------------|
--------------------------------------|
--------------------------------------|
--7777777777777777--3333333333333333--|
  xxxxxxxxxxxxxxxx  xxxxxxxxxxxxxxxx
Boys like you are a dime a dozen
boys like you are a dime a dozen


VERSE
G|------------------------------
D|------------------------------
A|--444--555555555555--0--------
E|------------------------------
    xxx  xxxxxxxxxxxx  x
She said
You're a touch, overrated

FILL
G|---------11--9--11----11----11-----9--|
D|--------------------------------------|
A|--------------------------------------|
E|--------------------------------------|

-------------------------------------------|
-------------------------------------------|
-------------------------------------------|
--7777777777777777--33333333333-3-3-3-3-3--|
  xxxxxxxxxxxxxxxx  xxxxxxxxxxx
You're lush, and I hate it
but these grass stains on my knees 
they won't mean a thing


CHORUS x2
G|------------------------------------------|
D|------------------------------------------|
A|--55555555--------------------------------|
E|------------55555555--77777777--33333333--|
and All I need to know
is that I'm somethin that your missin
maybe I should hate you for this
never really did ever quite get that far
maybe I should hate you for this
never really did ever quite get that


VERSE
G|------------------------------
D|------------------------------
A|--444--555555555555--0--------
E|------------------------------
    xxx  xxxxxxxxxxxx  x
I never lied to you

--------------------------------------|
--------------------------------------|
--------------------------------------|
--7777777777777777--3333333333333333--|
  xxxxxxxxxxxxxxxx  xxxxxxxxxxxxxxxx
unless I had to I'll do what I got to
unless I had to I'll do what I got to
the truth


VERSE
G|------------------------------
D|------------------------------
A|--444--555555555555--0--------
E|------------------------------
    xxx  xxxxxxxxxxxx  x
is you could slit my throat

FILL
e|-----------|
D|------(7)--|
A|-----------|
E|-----------|

-------------------------------------------|
-------------------------------------------|
-------------------------------------------|
--7777777777777777--33333333333-3-3-3-3-3--|
  xxxxxxxxxxxxxxxx  xxxxxxxxxxx
and with my one last gasping breath
I'd apologize for bleeding on your shirt


CHORUS x2
G|-------------------------------------------------|
D|-------------------------------------------------|
A|--5----------------------------------------------|
E|--------------5-----------7----------3-----------|
(same strumming as before)

and all I need to know
is that I'm somethin that your missin
maybe I should hate you for this
never really did ever quite get that far
maybe I should hate you for this
never really did ever quite get that


INTRO x2

FILL

G|--11----11--9-----11-------11----9---------|
D|-------------------------------------------|
A|-------------------------------------------|
E|-------------------------------------------|


BRIDGE
G|----------------------------------------|
D|----------------------------------------|
A|----------------------------------------|
E|--33333--33333--333--77777--77777--777--|
Cause I'm a wishful thinker with the worst intentions, 
and this will be the last chance you'll get to drop my name


INTRO x2

FILL
G|--11----11--9-----11-------11----9---------|
D|-------------------------------------------|
A|-------------------------------------------|
E|-------------------------------------------|





BRIDGE
G|----------------------------------------|
D|----------------------------------------|
A|----------------------------------------|
E|--33333--33333--333--77777--77777--777--|
Cause I'm a wishful thinker with the worst intentions, 
and this will be the last chance you'll get to drop my name


CHORUS x4
G|------------------------------------------|
D|------------------------------------------|
A|------------------------------------------|
E|------------55555555--77777777--33333333--|
If I'm just bad news,
then you're a liar (x8)


OUTRO x4
G|-------------------|
D|---------------- --|
A|--5----------------|
E|-------------------|

FILL x4
G|--------7--------7--|
D|--------------------|
A|--------------------|
E|--------------------|

END ON
G|----|
D|----|
A|--5-|
E|----|

That’s it, its easy if you find corrections email me


Текст, аккорды и табулатура для песни "Youre So Last Summer", исполняет "Taking Back Sunday".
Используемые в песне аккорды можно найти в разделе Как брать аккорды. Аккорды для шестиструнной гитары. Другие песни можно найти на нашем сайте, воспользовавшись алфавитным указателем вверху страницы.


 
Ошибка в тексте? Выделите ошибку и нажмите Ctrl+Enter