Tabbed by: Mohammed Awal

In the chorus you just have to palm mute the (0,0) part. Play the Outro with the bridge.
Strumming patern for everything but the Outro is: down,up,down,up,down,up,down,up,down,down
standard tuning.

Intro X1 (clean tone)
|---------------------------------|
|-55-55-55-55-5-5-33-33-33-33-3-3-|
|-55-55-55-55-5-5-55-55-55-55-5-5-|
|-33-33-33-33-3-3-xx-xx-xx-xx-x-x-|
|-----------------55-55-55-55-5-5-|
|---------------------------------|

|---------------------------------|
|-55-55-55-55-5-5-33-33-33-33-3-3-|
|-55-55-55-55-5-5-44-44-44-44-4-4-|
|-22-22-22-22-2-2-xx-xx-xx-xx-x-x-|
|-----------------55-55-55-55-5-5-|
|---------------------------------|


Verse X2 (distortion)
|---------------------------------|
|---------------------------------|
|---------------------------------|
|-33-33-33-33-3-3-55-55-55-55-5-5-|
|-33-33-33-33-3-3-55-55-55-55-5-5-|
|-11-11-11-11-1-1-33-33-33-33-3-3-|

|---------------------------------|
|---------------------------------|
|---------------------------------|
|-77-77-77-77-7-7-99-99-99-99-9-9-|
|-77-77-77-77-7-7-99-99-99-99-9-9-|
|-55-55-55-55-5-5-77-77-77-77-7-7-|

Chorus X2
|---------------------------------|
|---------------------------------|
|---------------------------------|
|-77-77-77-77-7-7-99-99-99-99-9-9-|
|-77-77-77-77-7-7-99-99-99-99-9-9-|
|-55-55-55-55-5-5-77-77-77-77-7-7-|

|---------------------------------|
|---------------------------------|
|---------------------------------|
|-55-55-55-55-5-5---------2-------|
|-55-55-55-55-5-5---------2-------|
|-33-33-33-33-3-3----0-0----------|

Bridge X9
|-------------------------------------|
|-----0-------0-------0-------5-------|
|---5---5---5---5---5---5---5---5-----|
|-------------------------------------|
|-0-------3---------------3-----------|
|-----------------3-------------------|

Outro X4
|-------------------------------------|
|-------------------------------------|
|----------55555555-------------------|
|-77777777-55555555-55555555-33333333-|
|-77777777-33333333-55555555-33333333-|
|-55555555----------33333333-11111111-|

Verse2  X6

|---------------------------------|
|---------------------------------|
|-----------------55-55-55-55-5-5-|
|-77-77-77-77-7-7-55-55-55-55-5-5-|
|-77-77-77-77-7-7-33-33-33-33-3-3-|
|-55-55-55-55-5-5-----------------|

|---------------------------------|
|---------------------------------|
|---------------------------------|
|-55-55-55-55-5-5-33-33-33-33-3-3-|
|-55-55-55-55-5-5-33-33-33-33-3-3-|
|-33-33-33-33-3-3-11-11-11-11-1-1-|

do the following at random times while guitar 1 is playing the second verse:

|-----0-0-------------------------|
|---1-----1-----------------------|
|-0---------0---------------------|
|---------------------------------|
|---------------------------------|
|---------------------------------|

Intro X1
Verse X2
Chorus X2
Verse X3
chorus x2
Bridge X9
Outro X4
Verse2 X6


Текст, аккорды и табулатура для песни "Timberwolves At New Jersey", исполняет "Taking Back Sunday".
Используемые в песне аккорды можно найти в разделе Как брать аккорды. Аккорды для шестиструнной гитары. Другие песни можно найти на нашем сайте, воспользовавшись алфавитным указателем вверху страницы.


 
Ошибка в тексте? Выделите ошибку и нажмите Ctrl+Enter