------------------------------------------------------------------------------- 
                 Timberwolves At New Jersey - Taking Back Sunday 
-------------------------------------------------------------------------------

Standerd strings- 

G 
D 
A 
E 
this song is 99.89% right!!!! 


G:-----------------------|-----------------------|------------------------ 
D:-----------------------|-----------------------|------------------------ 
A:-----------------------|-----------------------|0-0--0-0--0-0--0-0--0-0- 
E:1-1--1-1--1-1--1-1--1-1|3-3--3-3--3-3--3-3--3-3|------------------------ 

G:----------------------------------| 
D:----------------------------------| 
A:2-2--2-2--2-2--2-2--2-2-----------| 
E:----------------------------------| 

CHORUS 

G:----------------------------------|--------------------------------| 
D:----------------------------------|--------------------------------| 
A:0-0-0-0--0-0-0-0--0-0-0-0--0-0-0-0|3--3-3-3--3-3-3--3--3-3-3--3-3-3| 
E:----------------------------------|--------------------------------| 

G:----------------------------------|-----------|-------------| 
D:----------------------------------|-----------|-------------| 
A:----------------------------------|-----------|-------------| 
E:3-3-3-3--3-3-3-3--3-3-3-3--3-3-3-3|0-------0--|-0---------0-| 



BRIDGE THRU ENDING 

G:-----------|------------|----------|------------| 
D:-----------|------------|----------|------------| 
A:---0-------|----3-------|----------|------------| 
E:-----------|------------|---3------|---------1--|


Текст, аккорды и табулатура для песни "Timberwolves At New Jersey", исполняет "Taking Back Sunday".
Используемые в песне аккорды можно найти в разделе Как брать аккорды. Аккорды для шестиструнной гитары. Другие песни можно найти на нашем сайте, воспользовавшись алфавитным указателем вверху страницы.


 
Ошибка в тексте? Выделите ошибку и нажмите Ctrl+Enter