Taking Back Sunday - Timberwolves At New Jersey

Tabed By Sean Flemming 

Theres olny a couple tabs out for this song and some of them sound ok but are
off on some parts this is how i play it and it sounds good 

Standard Tuning (EADGBe) 

intro (clean) 

e|--------------------------------------------------------------------------| 
B|--55-55-55-55-5-5---77-77-77-77-7-7---55-55-55-55-5-5---33-33-33-33-3-3---| 
G|--55-55-55-55-5-5---77-77-77-77-7-7---55-55-55-55-5-5---33-33-33-33-3-3---| 
D|--33-33-33-33-3-3---55-55-55-55-5-5---33-33-33-33-3-3---11-11-11-11-1-1---| 
A|--------------------------------------------------------------------------| 
E|--------------------------------------------------------------------------| 

(pickslide guitar 2) 

verse 2x (distortion) 

e|-------------------------------------------------------------------------| 
B|-------------------------------------------------------------------------| 
G|--------------------------------------------------------55-55-55-55-5-5--| 
D|--33-33-33-33-3-3---55-55-55-55-5-5---77-77-77-77-7-7---55-55-55-55-5-5--| 
A|--33-33-33-33-3-3---55-55-55-55-5-5---77-77-77-77-7-7---33-33-33-33-3-3--| 
E|--11-11-11-11-1-1---33-33-33-33-3-3---55-55-55-55-5-5--------------------| 

chorus 2x (struming not shown listen to song to figure out) 

e|-------------------------------------------------------------------------| 
B|-------------------------------------------------------------------------| 
G|--2-----------------5----------------------------------------------------| 
D|--2-----------------5-----------------5---------------22222---222222-----| 
A|--0-----------------3-----------------5---------------22222---222222-----| 
E|--------------------------------------3---------------00000---000000-----| 
*(pm) **** ***** 

(then go back to intro and play everything again) 

bridge 8x 

e|-------------------------------------0-----------------------------------| 
B|-----1-0-1-----1-0-1----1-0-1------0--1----------------------------------| 
G|-------------------------------------------------------------------------| 
D|-------------------------------------------------------------------------| 
A|--0---------3-------------------0----------------------------------------| 
E|----------------------3--------------------------------------------------| 

same part (guitar 2)(all PM) 
2x slow 2x fast 
e|-------------------------------------------------------------------------| 
B|-------------------------------------------------------------------------| 
G|--22222-------------55555------------------------------------------------| 
D|--22222-------------55555-----------55555-------------33333--------------| 
A|--00000-------------33333-----------55555-------------33333--------------| 
E|------------------------------------33333-------------11111--------------| 
***** ***** ***** ***** 

6x (hold the notes out on the first 2 times then strum the last 4 times) 
e|-------------------------------------------------------------------------| 
B|-------------------------------------------------------------------------| 
G|--2-----------------5----------------------------------------------------| 
D|--2-----------------5-----------------5-----------------3----------------| 
A|--0-----------------3-----------------5-----------------3----------------| 
E|--------------------------------------3-----------------1----------------| 

2x (all pm) 
e|-------------------------------------------------------------------------| 
B|-------------------------------------------------------------------------| 
G|--------------------------------------------------------55-55-55-55-5-5--| 
D|--33-33-33-33-3-3---55-55-55-55-5-5---77-77-77-77-7-7---55-55-55-55-5-5--| 
A|--33-33-33-33-3-3---55-55-55-55-5-5---77-77-77-77-7-7---33-33-33-33-3-3--| 
E|--11-11-11-11-1-1---33-33-33-33-3-3---55-55-55-55-5-5--------------------| 
** ** ** ** * * ** ** ** ** * * ** ** ** ** * * ** ** ** ** * * 

and thats it, its real easy song to play if my wording on things is confusing
just listen to the song you can figure it out comments or corrections you can
e-mail me.


Текст, аккорды и табулатура для песни "Timberwolves At New Jersey", исполняет "Taking Back Sunday".
Используемые в песне аккорды можно найти в разделе Как брать аккорды. Аккорды для шестиструнной гитары. Другие песни можно найти на нашем сайте, воспользовавшись алфавитным указателем вверху страницы.


 
Ошибка в тексте? Выделите ошибку и нажмите Ctrl+Enter