-----------------|-----------------|guitar 1
-----------------|-----------------|
--4---4---4---4--|--4---4---4---4--|clean tone                                
--2---2---2---1--|--2---2---2---1--|let ring
--4---0---2---2--|--4---0---2---2--|
-----------------|-----------------|

verses
-----------------|-----------------|-----------------|-----------------|guitar 1
-----------------|-----------------|-----------------|-----------------|
---------4-4---4-|---------4-4---4-|---------4-4---4-|-----------------|clean   
-----2-------2---|-----2-------2---|-----2-------2---|-----1---4-2-1---|tone
-4-4---4---------|-0-0---0---------|-2-2---2---------|-2-2---2-------2-|
-----------------|-----------------|-----------------|-----------------|play 6x
pm......    pm    pm......    pm    pm......    pm    pm..  pm

-----------------|-----------------|---------------------------------|guitar 2
-----------------|-----------------|---------------------------------|
-6-6-6-6-6-6-6-6-|-2-2-2-2-2-2-2-2-|-4-4-4-4-4-4-4-4-4-4-4-4-4-4-4-4-|distortion
-6-6-6-6-6-6-6-6-|-2-2-2-2-2-2-2-2-|-4-4-4-4-4-4-4-4-4-4-4-4-4-4-4-4-|
-4-4-4-4-4-4-4-4-|-0-0-0-0-0-0-0-0-|-2-2-2-2-2-2-2-2-2-2-2-2-2-2-2-2-|
-----------------|-----------------|---------------------------------|play 6x
pm...................................................................

chorus
-----------------|-----------------|-----------------|-----------------|both
-----------------|-----------------|-----------------|-----------------|guitars
-4-4-4-4-4-4-4-4-|-4-4-4-4-4-4-4-4-|-9-9-9-9-9-9-9-9-|-----------------|
-4-4-4-4-4-4-4-4-|-4-4-4-4-4-4-4-4-|-9-9-9-9-9-9-9-9-|-7-7-7-7-7-7-7-7-|dist.
-6-6-6-6-6-6-6-6-|-2-2-2-2-2-2-2-2-|-7-7-7-7-7-7-7-7-|-7-7-7-7-7-7-7-7-|
-----------------|-----------------|-----------------|-5-5-5-5-5-5-5-5-|play 4x


-----------------|--------------------|guitar 1
-------9---------|-------9--10-9h10p9-|
----9------------|----9---------------|distortion
-9---------------|-9------------------|let ring
-----------------|--------------------|
-----------------|--------------------|play 4x


------------------------|both guitars |-----------------------|both guitars
------------------------|             |-----------------------|
-6--2--4----------------|distortion   |-6--2--4-4-4-4-4-4-4-4-|distortion
-6--2--4---2-1----2-1---|             |-6--2--4-4-4-4-4-4-4-4-|
-4--0--2-------2------2-|             |-4--0--2-2-2-2-2-2-2-2-|
------------------------|play 3x      |-----------------------|play 1x


-----------------|-----------------|---------------------------------|both 
-----------------|-----------------|---------------------------------|guitars
-6-6-6-6-6-6-6-6-|-2-2-2-2-2-2-2-2-|-4-4-4-4-4-4-4-4-4-4-4-4-4-4-4-4-|
-6-6-6-6-6-6-6-6-|-2-2-2-2-2-2-2-2-|-4-4-4-4-4-4-4-4-4-4-4-4-4-4-4-4-|distortion
-4-4-4-4-4-4-4-4-|-0-0-0-0-0-0-0-0-|-2-2-2-2-2-2-2-2-2-2-2-2-2-2-2-2-|
-----------------|-----------------|---------------------------------|play 6x


-----------------|both guitars
-----------------|
-6--2--4---------|distortion
-6--2--4---------|
-4--0--2---------|hold last chord
-----------------|


Текст, аккорды и табулатура для песни "Cute Without The E", исполняет "Taking Back Sunday".
Используемые в песне аккорды можно найти в разделе Как брать аккорды. Аккорды для шестиструнной гитары. Другие песни можно найти на нашем сайте, воспользовавшись алфавитным указателем вверху страницы.


 
Ошибка в тексте? Выделите ошибку и нажмите Ctrl+Enter