|------------------|
|------------------|Part 1
|-4---4---4---4----|
|-2---2---2---1----| x 2
|-4---0---2---2----|
|------------------|

|-----------------------------------------------------|-----------------|
|-----------------|-----------------|-----------------|-----------------|Part 2
|---------4-4---4-|---------4-4---4-|---------4-4---4-|---------4-----4-|(*PM*)
|-----2-------2---|-----2-------2---|-----2-------2---|-----2---*-2-----|
|-4-4-*-4-----*---|-0-0-*-0-----*---|-2-2-*-2-----*---|-0-0-*-0---*-0---| x 6
|-*-*---*---------|-*-*---*---------|-*-*---*---------|-*-*---*-----*---|

|---------------------------------------|
|---------------------------------------|
|-6-6-6-6-----------9-9-9-9-------------|Part 3
|-6-6-6-6--9-9-9-9--9-9-9-9--7-7-7-7----|
|-4-4-4-4--9-9-9-9--7-7-7-7--7-7-7-7----| x 4
|----------7-7-7-7-----------5-5-5-5----|

|---------------------------------------|
|--------9-------------9--9-9h10p9------|Part 4 
|-----9-------------9-------------------|
|--9-------------9----------------------| x 4
|---------------------------------------|
|---------------------------------------|

|-----------------------------|
|-----------------------------|Part 5
|-----------------------------|
|-11---7---9------------------|
|-11---7---9---7p6----7p6-----| x 4
|--9---5---7------7------7----|

|---------------------------------------|
|---------------------------------------|Part 6
|---------------------------------------|
|-11-11-11-11---7-7-7-7---9-9-9-9-9-9-9-|
|-11-11-11-11---7-7-7-7---9-9-9-9-9-9-9-| x 6
|--9--9--9--9---5-5-5-5---7-7-7-7-7-7-7-|


|------------------|
|------------------|Part 7
|------------------|
|--11----7----9----|
|--11----7----9----| x 1
|---9----5----7----|

 Song Order
'''''''''''''
Part 1
Part 2
Part 3
Part 2
Part 3
Part 4, 5, 6, 7   (Tabbed by Master Dr3w)


Текст, аккорды и табулатура для песни "Cute Without The E", исполняет "Taking Back Sunday".
Используемые в песне аккорды можно найти в разделе Как брать аккорды. Аккорды для шестиструнной гитары. Другие песни можно найти на нашем сайте, воспользовавшись алфавитным указателем вверху страницы.


 
Ошибка в тексте? Выделите ошибку и нажмите Ctrl+Enter