Эта подборка для тех, кто хоть раз смотрел концерт SOAD в Голландии. 
Здесь собраны некоторые песни , которые переигрывал Дарон Малакян.

После PRISON SONG (outro live) when the smoke is going down(Scorpions)
D||------||--------1--------------|--3----1----0---------|
A||------|--3---------------3----|
F||------||*-----------------2---------------|
C||------||*--0------------------------------|
G||------------------|
C||------------------|


                                              2x                        
----------------------------------||--------1--------------|
------------3----------5----------|--3---------|
-----------------3----------5----*||*--2--------------2----|
-------3--------------|-------5--------------*||*----------------------|
--1-------------------|--3---------------------|
-----------------------------------|


                                                                     
--1--------------1--------------------------|
-------3--------------|-------3--------------|--3--------------3----|
------------2----------3---------|-------3--------------|
----------------------|--3--------------3-----3---------|
--------------------------------------------|
--------------------------------------------|


                                                                     
-------1--------------|--3----1----0--------------------|
------------3---------------3-----3---------|
-----------------2---------------------3----|
--0------------------------------|-------3--------------|
---------------------------------|--1-------------------|
--------------------------------------------|


                                                                     
----------------------|-------1--------------|--1--------------1----|
------------5----------3---------|-------3--------------|
-----------------5----|--2--------------2-----2---------|
-------5------------------------------------|
--3-----------------------------------------|
--------------------------------------------|


                                                                     
---------------------------------|-------1--------------|
-------3--------------|--3--------------3-----3---------|
------------3---------|-------3--------------------2----|
--3--------------3-----3---------|--0-------------------|
--------------------------------------------|
--------------------------------------------|


                                                                       
--3----1----0--------------------------------||
-----------------3-----3----------5----------||
----------------------------3----------5----*||
----------------------|-------3--------------|-------5--------------*||
----------------------|--1-------------------|--3--------------------||
---------------------------------------------||


                     
--1----------------||
--3----------------||
--2----------------||
--0----------------||
-------------------||
-------------------||


Текст, аккорды и табулатура для песни "When The Smoke Is Going Down", исполняет "System Of A Down".
Используемые в песне аккорды можно найти в разделе Как брать аккорды. Аккорды для шестиструнной гитары. Другие песни можно найти на нашем сайте, воспользовавшись алфавитным указателем вверху страницы.


 
Ошибка в тексте? Выделите ошибку и нажмите Ctrl+Enter