Daron Malakian                                                          
D||------7-----7-----7-----7--|-----7-----7-----7-----7--|
A||---------0-----------0-----|--------0-----------0-----|
F||*--9-----------9-----------|--9-----------9-----------|
C||*-----------------------------------------|
G--------------------|
C--------------------|
                                                            
------7-----7------7-----7--|------7-----7------7-----7---||
---------0------------0-----|---------0------------0------||
--10-----------10-----------|--10-----------10-----------*||
---------------------------------------------*||
----------------------------------------------||
----------------------------------------------||
                                                       
------------------------------------------|
------------------------------------------|
*-----------------------------------------|
*-----9-----9-----9-----9--|-----9-----9-----9-----9--|
---7-----7-----7-----7-----|--7-----7-----7-----7-----|
------------------------------------------|
                                                      3x                       
------------------------------------------|
------------------------------------------|
-----------------------------------------*||*---------------------|
-----9-----9-----9-----9--|-----9-----9-----9-----9--*||*---------------------|
--8-----8-----8-----8-----|--8-----8-----8-----8------||---2------2------2----|
------------------------------------------||---2------2------2----|
                                                                    
------------------------------------------||
------------------------------------------||
-----------------------------------------*||
-----------------------------------------*||
----2------2----2----|--3------3------3----|----3------3----3-----||
----2------2----2----|--3------3------3----|----3------3----3-----||
                                                       
------------------------------------------|
------------------------------------------|
*-----------------------------------------|
*-----9-----9-----9-----9--|-----9-----9-----9-----9--|
---7-----7-----7-----7-----|--7-----7-----7-----7-----|
------------------------------------------|
                                                      3x                       
------------------------------------------|
------------------------------------------|
-----------------------------------------*||*---------------------|
-----9-----9-----9-----9--|-----9-----9-----9-----9--*||*---------------------|
--8-----8-----8-----8-----|--8-----8-----8-----8------||---2------2------2----|
------------------------------------------||---2------2------2----|
                                                                    
------------------------------------------||
------------------------------------------||
-----------------------------------------*||
-----------------------------------------*||
----2------2----2----|--3------3------3----|----3------3----3-----||
----2------2----2----|--3------3------3----|----3------3----3-----||
                                                                      
---------------------------------------------|
---------------------------------------------|
*--8------8------8----|----8------8----8----|--11------11------11----|
*--x------x------x----|----x------x----x----|--x-------x-------x-----|
---7------7------7----|----7------7----7----|--10------10------10----|
---------------------------------------------|
                                                       
-------------------------||------7-----7-----7-----7--|
-------------------------||---------0-----------0-----|
----11------11----11----*||*--9-----------9-----------|
----x-------x-----x-----*||*--------------------------|
----10------10----10----------|
------------------------------|
                                                        
-----7-----7-----7-----7--|------7-----7------7-----7--|
--------0-----------0-----|---------0------------0-----|
--9-----------9-----------|--10-----------10-----------|
-------------------------------------------|
-------------------------------------------|
-------------------------------------------|
                                                                             
------7-----7------7-----7---||--7------------------|
---------0------------0------||--0------------------|
--10-----------10-----------*||--10----------------||*----------------------|
----------------------------*|---------||*----------------------|
-----------------------------|---------||---2--------2----2--2--|
-----------------------------|---------||---2--------2----2--2--|
                                                                       
---------------------------------------------||
---------------------------------------------||
--------------------------------------------*||
--------------------------------------------*||
----2--2----2----2----|--3--------3----3--3--|----3--3----3----3-----||
----2--2----2----2----|--3--------3----3--3--|----3--3----3----3-----||
                                                      
-----------------------------------------|
-----------------------------------------|
*-----------------------------------4----|
*----------------------------------------|
---2--2--2--2--2--2--2--2--|--2--2--2--2--2--2-------|
---2--2--2--2--2--2--2--2--|--2--2--2--2--2--2-------|
                                                       
-----------------------------------------||
-----------------------------------------||
-----------------------------------5----*||
----------------------------------------*||
--3--3--3--3--3--3--3--3--|--3--3--3--3--3--3--------||
--3--3--3--3--3--3--3--3--|--3--3--3--3--3--3--------||
                                                                                
-------------------------------------------|
-------------------------------------------|
--------------------------------------||*--------------------------|
--------------------------------------||*-----9-----9-----9-----9--|
--3--3--3--3--3--3--3--3--|--3--3--3--3--3--------||---7-----7-----7-----7-----|
--3--3--3--3--3--3--3--3--|--3--3--3--3--3-------------|
                                                      
-----------------------------------------|
-----------------------------------------|
-----------------------------------------|
-----9-----9-----9-----9--|-----9-----9-----9-----9--|
--7-----7-----7-----7-----|--8-----8-----8-----8-----|
-----------------------------------------|
                                                                          
-------------------------------------|
-------------------------------------|
--------------------------*||*-------------------------------|
-----9-----9-----9-----9--*||*-------------------------------|
--8-----8-----8-----8------||---2------2------2----|----2------2----2----|
---------------------------||---2------2------2----|----2------2----2----|
                                                                     
--------------------------------|
--------------------------------|
-------------------------------*||*--8------8------8----|
-------------------------------*||*--x------x------x----|
--3------3------3----|----3------3----3-----||---7------7------7----|
--3------3------3----|----3------3----3-----|
                                                                          
------------------------------------------------||
------------------------------------------------||
----8------8----8----|--11------11------11----|----11------11----11----*||
----x------x----x----|--x-------x-------x-----|----x-------x-----x-----*||
----7------7----7----|--10------10------10----|----10------10----10-----||
------------------------------------------------||
                     
-------------------||
-------------------||
-------------------||
-------------------||
--2----------------||
--2----------------||


Текст, аккорды и табулатура для песни "Suggestions", исполняет "System Of A Down".
Используемые в песне аккорды можно найти в разделе Как брать аккорды. Аккорды для шестиструнной гитары. Другие песни можно найти на нашем сайте, воспользовавшись алфавитным указателем вверху страницы.


 
Ошибка в тексте? Выделите ошибку и нажмите Ctrl+Enter