-----------------------------------------------------------------------------------------------------

                               Side of the Freeway - System of a Down

-----------------------------------------------------------------------------------------------------

it's from a new untitled, unreleased cd

Tabbing attempt (and failure) by: bleedseason
[email protected] (email me if you want the mp3)

keep in mind this is my first tabbing attempt (so therefore failure.
there, i explained myself pretty well =P)

Tuning: Drop D, tune down a whole step (so 6th string is C)

x = mute (with your fret hand)


Intro   clean channel   (play 8 times) (on last repetition hold the note with the *)
d|-----------------------------------------------------------------------|
A|-----------------------------------------------------------------------|
F|-----------------------------------------------------------------------|
c|-0---3-2---3-0---x-0---x-0---1-0---x------------------0*---0---1-0-----|
G|--------------------------------------3---x-3--x-3--x------------------|
C|-----------------------------------------------------------------------|

There's a guitar playing higher chords in the background when it gets to the 5th
repetition of the chorus but i havent taken the time to figure that out yet.


Chorus heavy distorion, like most SOAD songs (play 8 times) 
d|----------------------|
A|----------------------|
F|----------------------|
c|-0----7----3----878---|
G|-0----7----3----878---|
C|-0----7----3----878---|


Verse (play 8 times)
d|----------------------|
A|----------------------|
F|----------------------|
c|-0----7----3----878---|
G|-0----7----3----878---|
C|-0----7----3----878---|
  |----Palm-Mute-----|


Chorus again


=================================================================================


And that's all i have so far, i'll get more as soon as i'm not so lazy =/


Here's the lyrics:

Hey, mister Jack
is that the mouth washing your eyes (?)
hey, mister Jack
is that the cause of your demise
hey, where you at?
on the side of the freeway in the car
hey, where you at?
on the side of the freeway in the car


(the chorus is basically just repeating fragments 
of the last line of the verses)


Hey, mister Jack
is that the trick of your diguise
hey, mister Jack
is that the cause of your demise
hey, where you at?
on the side of the freeway in the car
hey, where you at?
on the side of the freeway in the car


7 a.m. in the morning
can't you take us away?
little men, big guns, pointing at our heads
7 a.m... morning
can't they take us away?
little men, big guns, pointing at our heads
and all at our heads


(i can only decifer bits of the rest of the some because its all screamed)

you're ??? of every god
you ran ??? ???? ???
protectors on your back
??? on the track
you ??? ??? authority
you're nothing like me
you ??? ??? authority
you're nothing like me


put your hands up, get out of the car
put your hands up, get out of the car
put your hands up, get out of the car

fuck you, pig
fuck you, pig
fuck you, pig
fuck you, pig

put your hands up, get out of the car


Текст, аккорды и табулатура для песни "Side Of The Freeway", исполняет "System Of A Down".
Используемые в песне аккорды можно найти в разделе Как брать аккорды. Аккорды для шестиструнной гитары. Другие песни можно найти на нашем сайте, воспользовавшись алфавитным указателем вверху страницы.


 
Ошибка в тексте? Выделите ошибку и нажмите Ctrl+Enter