Вступление:
                                                                        4x
||-----------------|----------------|----------------|------------------||
||o----------------|----------------|----------------|-----------------o||
||-----7-5---------|----7-5---------|----5-4---------|----5-4-----------||
||---------6-5-6---|--------6-5-6---|--------5-4-5---|--------5-4-5-----||
||o-3------------0-|-3------------0-|-2------------0-|-2------------0--o||
||-----------------|----------------|----------------|------------------||

Куплет:

||------------------------|-----------------------|-----------------------|-------------------------||
||o-----------------------|-----------------------|-----------------------|------------------------o||
||------------------------|-----------------------|-----------------------|-------------------------||
||--11--11-11-11-11-11-11-|-10--10-10-10-10-10-10-|-10--10-10-10-10-10-10-|--9---9--9--9--9--9--9---||
||o-11--11-11-11-11-11-11-|-11--11-11-11-11-11-11-|-10--10-10-10-10-10-10-|-10--10-10-10-10-10-10--o||
||------------------------|-----------------------|-----------------------|-------------------------||

She's like heroin Sipping through a little glass,  I'm looking for some help, I need someone to save her ass 

||------------------------|-----------------------|-----------------------|-------------------------||
||o-----------------------|-----------------------|-----------------------|------------------------o||
||------------------------|-----------------------|-----------------------|-------------------------||
||--11--11-11-11-11-11-11-|-10--10-10-10-10-10-10-|-10--10-10-10-10-10-10-|--9---9--9--9--9--9--9---||
||o-11--11-11-11-11-11-11-|-11--11-11-11-11-11-11-|-10--10-10-10-10-10-10-|-10--10-10-10-10-10-10--o||
||------------------------|-----------------------|-----------------------|-------------------------||

Chinese tricks in rooms With ghost's of hooker girly dudes,
Me and heroin, maybe we can make some cash selling 

Припев:

||---------------|---------------------|--------------|-----------------------||
||o--------------|---------------------|--------------|----------------------o||
||---------------|---------------------|--------------|-----------------------||
||---------------|---------------------|--------------|-----------------------||
||o---9--9-7--9--|-10-12-10-12-10-9-9--|---9--9-7--9--|-10-12-10-12-10-9-9---o||
||----9--9-7--9--|-10-12-10-12-10-9-9--|---9--9-7--9--|-10-12-10-12-10-9-9----||
   
   ASS           Selling ass for heroin      ASS       Selling ass for heroin 
 
Куплет: рифф из куплета,

She wants nothing more Than to be a little whore 
He wants nothing less But to wear a little dress 

She's like heroin Sipping through a little glass 
I'm looking for some help, I need someone to make some cash selling 

Припев: рифф из припева, текст тот же.

Переход:

||-----------------|----------------|----------------|------------------||
||o----------------|----------------|----------------|-----------------o||
||-----7-5---------|----7-5---------|----5-4---------|----5-4-----------||
||---------6-5-6---|--------6-5-6---|--------5-4-5---|--------5-4-5-----||
||o-3------------0-|-3------------0-|-2------------0-|-2------------0--o||
||-----------------|----------------|----------------|------------------||

Затем:

          1   2   3   4   5   6   7   8   9   10  11  12  13  14  15  16  
Гитара 1  |-*-|-*-|-*-|-*-|-*-|-*-|-*-|-*-|-*-|-*-|-*-|-*-|-*-|-*-|-*-|-*-|
Гитара 2  |---|---|---|---|---|---|---|---|-*-|-*-|-*-|-*-|-*-|-*-|-*-|-*-|

Гитара 1:
                                                                                            4x
||--------------------------|-------------------------|-----------------|-------------------||
||o-------------------------|-------------------------|-----------------|------------------o||
||--------------------------|-------------------------|-----------------|-------------------||
||--10-10-10-10-10-10-10-10-|-10-10-10-10-10-10-10-10-|-9-9-9-9-9-9-9-9-|-9-9-9-9-9-9-9-9---||
||o-10-10-10-10-10-10-10-10-|-10-10-10-10-10-10-10-10-|-9-9-9-9-9-9-9-9-|-9-9-9-9-9-9-9-9--o||
||--------------------------|-------------------------|-----------------|-------------------||

La=la-la...

Гитара 2 (с 9 такта):

||--/16-16-16-16-16-16-16-16-|-16-16-16-16-16-16-16-16-|-15-15-15-15-15-15-15-15-|-15-15-15-15-15-15-15-15---||
||o-/16-16-16-16-16-16-16-16-|-16-16-16-16-16-16-16-16-|-15-15-15-15-15-15-15-15-|-15-15-15-15-15-15-15-15--o||
||---------------------------|-------------------------|-------------------------|---------------------------||
||---------------------------|-------------------------|-------------------------|---------------------------||
||o--------------------------|-------------------------|-------------------------|--------------------------o||
||---------------------------|-------------------------|-------------------------|---------------------------||

La-la-la...

Припев:

||------------------------|-----------------------|----------------|-----------------|
||o-----------------------|-----------------------|----------------|-----------------|
||------------------------|-----------------------|----------------|-----------------|
||--10--10-10-10-10-10-10-|-10--10-10-10-10-10-10-|-9--9-9-9-9-9-9-|-9--9-9-9-9-9-9--|
||o-10--10-10-10-10-10-10-|-10--10-10-10-10-10-10-|-9--9-9-9-9-9-9-|-9--9-9-9-9-9-9--|
||--10--10-10-10-10-10-10-|-10--10-10-10-10-10-10-|-9--9-9-9-9-9-9-|-9--9-9-9-9-9-9--|

She's like heroin, Sipping through a little glass 
I'm looking for some help, I need someone to save her ass 
|----------------|----------------|----------------|-----------------||
|----------------|----------------|----------------|----------------o||
|----------------|----------------|----------------|-----------------||
|-7--7-7-7-7-7-7-|-7--7-7-7-7-7-7-|-5--5-5-5-5-5-5-|-5--5-5-5-5-5-5--||
|-7--7-7-7-7-7-7-|-7--7-7-7-7-7-7-|-5--5-5-5-5-5-5-|-5--5-5-5-5-5-5-o||
|-7--7-7-7-7-7-7-|-7--7-7-7-7-7-7-|-5--5-5-5-5-5-5-|-5--5-5-5-5-5-5--||

She wants nothing more 
But to be a little whore 
He wants nothing less 
But to wear a little dress 

She's like heroin 
Sipping through a little glass 
I'm looking for some help 
I need someone to save her ass 

Chinese tricks in rooms 
With ghost's of hooker girly dudes 
Me and heroin, maybe we can make some cash 


Outro:

|----------------------------------|---------------------------|
|----------------------------------|---------------------------|
|----------------------------------|---------------------------|
|----------------------------------|---------------------------|
|-11------11-------10------10------|-10-----10-----9-----9-----|
|-----10------10-------10------10--|-----9------9-----9-----9--|

She's like heroin Sipping through a little glass 

|--------------------------|----------------------------|
|--------------------------|----------------------------|
|--------------------------|----------------------------|
|--------------------------|----------------------------|
|-9-----9------7-----7-----|-7-----7------5--(5)--5-----|
|----7-----7------7-----7--|----5-----5-------5------5--|

I'm looking for some help   I need someone to save my ass...


Текст, аккорды и табулатура для песни "She's Like A Heroin", исполняет "System Of A Down".
Используемые в песне аккорды можно найти в разделе Как брать аккорды. Аккорды для шестиструнной гитары. Другие песни можно найти на нашем сайте, воспользовавшись алфавитным указателем вверху страницы.


 
Ошибка в тексте? Выделите ошибку и нажмите Ctrl+Enter