Drop C:
C G C F A D

( ) = harmonics

Intro: pm 5’s

d-----------------------------------------------------------------
a-----------------------------------------------------------------
f-(7)------------------------------------------(7)----------------
c-----------------------------------------------------------------
g------5-5--5-5-5--5-5--5-5-5--5-5-5--5--5-5-5-----5-5--5-5-5--5-5
c-----------------------------------------------------------------

d-----------------------------------------------------------------
a-----------------------------------------------------------------
f--------------------(7)------------------(7)------------------(7)
c-----------------------------------------------------------------
g-5-5--5--5-5--5-5-5------5-5--5-5--5-5-5------5-5--5-5--5-5-5----
c-----------------------------------------------------------------

d-----------------------------------------------------------------
a-----------------------------------------------------------------
f----------(7)---------(7)----------(7)------------7--------------
c--------------------------------------------5--7--7--------------
g-----5--5--------5--5--------5--5-----------5--5--5--------------
c-----------------------------------------------------------------

Fig. 1

d-----------------------------------------------------------------
a-----------------------------------------------------------------
f-------------7-----------------7--------------------------------7
c-------------7-----------------7--------------------------------7
g-0-0-0-0-0-0-5---0-0-0-0-0-0-0-5---0-0-0-0-0-0-------7-8-10-8-7-5
c-0-0-0-0-0-0-----0-0-0-0-0-0-0-----0-0-0-0-0-0-8--10-------------

d-----------------------------------------------------------------
a-----------------------------------------------------------------
f-------------7-----------------7---------------------------------
c-------------7-----------------7---------------------------------
g-0-0-0-0-0-0-5---0-0-0-0-0-0-0-5---0-0-0-0-0-0-------7-8-10-8-7-6
c-0-0-0-0-0-0-----0-0-0-0-0-0-0-----0-0-0-0-0-0-8--10-------------

Verse 1:

d-----------------------------------------------------------------
a-----------------------------------------------------------------
f-----------------------------------------------------------------
c-----------------------------------------------------------------
g-(6)-5-5--5-5-5--5-5--5-5-5--5-5--5-5-5--5-5-5-6---5-5--5-5-5--5-
c-----------------------------------------------------------------

d-----------------------------------------------------------------
a-----------------------------------------------------------------
f-----------------------------------------------------------------
c-----------------------------------------------------------------
g-5-5--5-5-5--5-5--5-5-5-6---5-5--5-5-5--5-5-5-6---5--5--5-5-5-5--
c-----------------------------------------------------------------

d-----------------------------------------------------------------
a-----------------------------------------------------------------
f------------------------------------------------7----------------
c-----------------------------------------------------------------
g-6-----5--5--6-----5--5--6-----5--5--6-----5--5------------------
c-----------------------------------------------------------------

d-----------------------------------------------------------------
a-----------------------------------------------------------------
f-(7)------------------------------------------(7)----------------
c-----------------------------------------------------------------
g------5-5--5-5-5--5-5--5-5-5--5-5-5--5--5-5-5-----5-5--5-5-5--5-5
c-----------------------------------------------------------------

d-----------------------------------------------------------------
a-----------------------------------------------------------------
f--------------------(7)------------------(7)------------------(7)
c-----------------------------------------------------------------
g-5-5--5--5-5--5-5-5------5-5--5-5--5-5-5------5-5--5-5--5-5-5----
c-----------------------------------------------------------------

d-----------------------------------------------------------------
a-----------------------------------------------------------------
f----------(7)---------(7)----------(7)------------7--------------
c--------------------------------------------5--7--7--------------
g-----5--5--------5--5--------5--5-----------5--5--5--------------
c-----------------------------------------------------------------

Chorus: Fig. 1

Verse 2:

d-----------------------------------------------------------------
a-----------------------------------------------------------------
f-----------------------------------------------------------------
c-----------------------------------------------------------------
g----5--5--5-5-5--5-5--5-5-5--5--5--5-5-5-6---5--5--5-5-5--5-5--5-
c-----------------------------------------------------------------

d-----------------------------------------------------------------
a-----------------------------------------------------------------
f--------------------(7)-------------------(7)---------------(7)--
c-----------------------------------------------------------------
g-5-5---5-5-5--5-5-5-------5-5--5-5-5--5-5------5-5--5-5-5-5------
c-----------------------------------------------------------------

d-----------------------------------------------------------------
a-----------------------------------------------------------------
f-----------(7)-----------(7)-----------(7)------------7----------
c------------------------------------------------------7----------
g------5--5----------5--5----------5--5---------5--5---5----------
c-----------------------------------------------------------------

Chorus: Fig. 1 , then

d-----------------------------------------------------------------
a-----------------------------------------------------------------
f-------------7-----------------7---------------------------------
c-------------7-----------------7---------------------------------
g-0-0-0-0-0-0-5---0-0-0-0-0-0-0-5---0-0-0-0-0-0-------7-8-10-8-7--
c-0-0-0-0-0-0-----0-0-0-0-0-0-0-----0-0-0-0-0-0-8--10-------------

Bridge: x2

d-----------------------------------------------------------------
a-----------------------------------------------------------------
f-----------------------------------------------------------------
c-0----------2----------3-----------------------------------------
g-0----------2----------3----------------------7--8--10--8--7-----
c-0----------2----------3-------------8----10---------------------

Interlude:

gtr. 3 & 4 (4 plays the higher notes)

d-----3-5-----5-6-----5-6-8-6-5-6-----3-5-----5-6-----5-6-8-6-5---
a-3-3-------3-------3---------------3-------3-------3-------------
f-----0-2-----2-3-----2-3-5-3-2-3-----0-2-----2-3-----2-3-5-3-2---
c-0-0-------0-------0---------------0-------0-------0-------------
g-----------------------------------------------------------------
c-----------------------------------------------------------------

gtr. 1 & 2

d-----------------------------------------------------------------
a-----------------------------------------------------------------
f-----------------------------------------------------------------
c-----------------------------------------------------------------
g-0-------0-------0---------------0-------0-------0---------------
c-0-------0-------0---------------0-------0-------0---------------

gtr. 3 & 4

d-----3-5-----5-6-----5-6-8-6-5-6---------------------------------
a---3-------3-------3-----------------6-6--8---6----5---5-5-6-5---
f-----0-2-----2-3-----2-3-5-3-2-3-----5-------------------------5-
c---0-------0-------0--------------0--0-------------2---2-2-3-2---
g-------------------------------------3-------------------------3-
c-----------------------------------------------------------------

Half Time Feel

gtr. 4 & 5

d-----3-3-5---5-6---3-5----5--5-5------3-3-5---8---6-5----5---5-5-
a-----3--------------------------------3--------------------------
f-----2--------------------------------2--------------------------
c-----------------------------------------------------------------
g-----------------------------------------------------------------
c-----------------------------------------------------------------

gtr. 3

d-----------------------------------------------------------------
a-----------------------------------------------------------------
f-----0-0-2---2-3---0-2----2--2-2------0-0-2---5---3-2----2---2-2-
c-0--------------------------------0------------------------------
g-----------------------------------------------------------------
c-----------------------------------------------------------------

Bridge:

d-----------------------------------------------------------------
a-----------------------------------------------------------------
f-----------------------------------------------------------------
c-----------------------------------------------------------------
g-5-----5-5-5----5-5-5----5-5-5---7----7-7-7----7-7-7----7-7-7----
c-----------------------------------------------------------------

d-----------------------------------------------------------------
a-----------------------------------------------------------------
f-----------------------------------------------------------------
c-----------------------------------------------------------------
g-8-----8-8-8----8-8-8----8-8-8------------7--8--10--8--7--5------
c--------------------------------8-----10-------------------------

d-----------------------------------------------------------------
a-----------------------------------------------------------------
f-----------------------------------------------------------------
c-0----------2----------3-----------------------------------------
g-0----------2----------3----------------------7--8--10--8--7-----
c-0----------2----------3-------------8----10---------------------

d-----------------------------------------------------------------
a-----------------------------------------------------------------
f-----------------------------------------------------------------
c-0----------2----------3--------------------------------------0--
g-0----------2----------3----------------------7--8--10--8--7--0--
c-0----------2----------3-------------8----10------------------0--


Текст, аккорды и табулатура для песни "Science", исполняет "System Of A Down".
Используемые в песне аккорды можно найти в разделе Как брать аккорды. Аккорды для шестиструнной гитары. Другие песни можно найти на нашем сайте, воспользовавшись алфавитным указателем вверху страницы.


 
Ошибка в тексте? Выделите ошибку и нажмите Ctrl+Enter