System of a down - Roulette

I'm a massive system fan and I really hated seeing System tabs in Drop C, or just
seeing them totally wrong. I wrote this correction just to Have a Standard E
version for all the people who don't wanna f*ck up their tunning.

(I know it's not the tunning SOAD uses...plus it's my first tab so plz send hate
mail if you think its horrible)..(I prefer to finger-pick through the whole song)

 = Quick Switch to Note
^ = Tied-Note

 Intro  Verse 1       Repeat 4x
E-------------5-----------------------------------------------|4x|--
B---4-----4---------5---6-----6-------------------------------|4x|--
G---------------------------------5------7------------------|4x|--
D-----------1-----------------------------------------------|4x|--
A-3---3-3-------1-1---4---4-4-------------------------------|4x|--
E-------------------------------4-----4-6-----6---------------|4x|--

 Chorus       Repeat 2x
E-------------------------------------------------------------|2x|--
B---4-----4---------------------------------------------------|2x|--
G-------------4-----4---7-----7---5------7------------------|2x|--
D-----------------------------------------------------------|2x|--
A-3---3-3---------------------------------------------------|2x|--
E-----------3---3-3---6---6-6---4-----4-6-----6---------------|2x|--

 Verse 2  Intro         Repeat 4x
E-------------5-----------------------------------------------|4x|--
B---4-----4---------5---6-----6-------------------------------|4x|--
G---------------------------------5------7------------------|4x|--
D-----------1-----------------------------------------------|4x|--
A-3---3-3-------1-1---4---4-4-------------------------------|4x|--
E-------------------------------4-----4-6-----6---------------|4x|--

 Chorus       Repeat 4x
E-------------------------------------------------------------|4x|--
B---4-----4---------------------------------------------------|4x|--
G-------------4-----4---7-----7---5------7------------------|4x|--
D-----------------------------------------------------------|4x|--
A-3---3-3---------------------------------------------------|4x|--
E-----------3---3-3---6---6-6---4-----4-6-----6---------------|4x|--

 Solo         Repeat 2x
E-8---8^10-11---10^11-13----10^11-13-11-10-8-10-11-10-8-8-----------
B----------------------------------------------------------8-8------
G-------------------------------------------------------------------
D-------------------------------------------------------------------
A-------------------------------------------------------------------
E-------------------------------------------------------------------

E-------------------------------------------------------------|2x|--
B-8^9-11-9-8-6-8-9-8-6-6-------6--4-3-1-3-4-3-1---------------|2x|--
G-------------------------3-3---------------------------------|2x|--
D-------------------------------------------------------------|2x|--
A-------------------------------------------------------------|2x|--
E-------------------------------------------------------------|2x|--

Then Quickly go to the Chorus Riff

 Chorus       Repeat 4x
E-------------------------------------------------------------|4x|--
B---4-----4---------------------------------------------------|4x|--
G-------------4-----4---7-----7---5------7------------------|4x|--
D-----------------------------------------------------------|4x|--
A-3---3-3---------------------------------------------------|4x|--
E-----------3---3-3---6---6-6---4-----4-6-----6---------------|4x|--

 Outro  Intro         Repeat 4x
E-------------5-----------------------------------------------|4x|--
B---4-----4---------5---6-----6-------------------------------|4x|--
G---------------------------------5------7------------------|4x|--
D-----------1-----------------------------------------------|4x|--
A-3---3-3-------1-1---4---4-4-------------------------------|4x|--
E-------------------------------4-----4-6-----6---------------|4x|--

Lyrics :

I have a problem that I cannot explain,
I have no reason why it should've been so plain,
Have no questions but I sure have excuse,
I lack the reason why I should be so confused.

I know, how I feel when I'm around you,
I don't know, how I feel when I'm around you,
Around you.

Left a message but it ain't a bit of use,
I have some pictures, the wild might be the deuce,
Today you saw, you saw me, you explained,
Playin the show and running down the plane.

I know, how I feel when I'm around you,
I don't know, how I feel when I'm around you,
I know, how I feel when I'm around you,
I don't know, how I feel when I'm around you,
Around you,

I know, how I feel when I'm around you,
I don't know, how I feel when I'm around you,
I know, how I feel when I'm around you,
I don't know, how I feel when I'm around you,
Around you, Around you, Around you...

Once again this IS my first tab, if its wrong, send all the e-mails you want
explain how horrible I am, it is NOT SOAD's tunning, and it DOES require some
fast hand movements, but if I can ace it in 45 mins, then any other 14-years old
who's been playing for only a year can. [email protected]

Posted by : R.A.


Текст, аккорды и табулатура для песни "Roulette (ver 12)", исполняет "System Of A Down".
Используемые в песне аккорды можно найти в разделе Как брать аккорды. Аккорды для шестиструнной гитары. Другие песни можно найти на нашем сайте, воспользовавшись алфавитным указателем вверху страницы.


 
Ошибка в тексте? Выделите ошибку и нажмите Ctrl+Enter