D-----------------------------|
A||-------6----------6-----|-------10----------5-----|-------8----------8-----|
F||-------7----------7-----|-------10----------5-----|-------8----------8-----|
C-----------------------------|
G||--5-------5----5-----5--|--8--------0--3-------3--|--6-------6----6-----0--|
C-----------------------------|


                                                                            
---------------------------------------------------|
-------3----------5-----|-------6----------6-----|-------10----------5-----|
-------3----------5-----|-------7----------7-----|-------10----------5-----|
---------------------------------------------------|
--1-------1--3-------3--|--5-------5----5-----5--|--8--------0--3-------3--|
---------------------------------------------------|


                                                                           
--------------------------------------------------|
-------8----------8-----|-------3----------5-----|-------6----------6-----|
-------8----------8-----|-------3----------5-----|-------7----------7-----|
--------------------------------------------------|
--6-------6----6-----0--|--1-------1--3-------3--|--5-------5----5-----5--|
--------------------------------------------------|


                                                                            
---------------------------------------------------|
-------10----------5-----|-------8----------8-----|-------3----------5-----|
-------10----------5-----|-------8----------8-----|-------3----------5-----|
---------------------------------------------------|
--8--------0--3-------3--|--6-------6----6-----0--|--1-------1--3-------3--|
---------------------------------------------------|


                                                                            
---------------------------------------------------|
-------6----------6-----|-------10----------5-----|-------8----------8-----|
-------7----------7-----|-------10----------5-----|-------8----------8-----|
---------------------------------------------------|
--5-------5----5-----5--|--8--------0--3-------3--|--6-------6----6-----0--|
---------------------------------------------------|


                                                                           
--------------------------------------------------|
-------3----------5-----|-------6----------6-----|-------2----------2-----|
-------3----------5-----|-------7----------7-----|-------2----------2-----|
--------------------------------------------------|
--1-------1--3-------3--|--5-------5----5-----5--|--0-------0----0-----0--|
--------------------------------------------------|


                                                                           
--------------------------------------------------|
-------5----------5-----|-------3----------5-----|-------6----------6-----|
-------5----------5-----|-------3----------5-----|-------7----------7-----|
--------------------------------------------------|
--3-------3----3-----0--|--1-------1--3-------3--|--5-------5----5-----5--|
--------------------------------------------------|


                                                                           
--------------------------------------------------|
-------2----------2-----|-------5----------5-----|-------3----------5-----|
-------2----------2-----|-------5----------5-----|-------3----------5-----|
--------------------------------------------------|
--0-------0----0-----0--|--3-------3----3-----0--|--1-------1--3-------3--|
--------------------------------------------------|


                                                                            
---------------------------------------------------|
-------6----------6-----|-------10----------5-----|-------8----------8-----|
-------7----------7-----|-------10----------5-----|-------8----------8-----|
---------------------------------------------------|
--5-------5----5-----5--|--8--------0--3-------3--|--6-------6----6-----0--|
---------------------------------------------------|


                                                                            
---------------------------------------------------|
-------3----------5-----|-------6----------6-----|-------10----------5-----|
-------3----------5-----|-------7----------7-----|-------10----------5-----|
---------------------------------------------------|
--1-------1--3-------3--|--5-------5----5-----5--|--8--------0--3-------3--|
---------------------------------------------------|


                                                                           
--------------------------------------------------|
-------8----------8-----|-------3----------5-----|-------6----------6-----|
-------8----------8-----|-------3----------5-----|-------7----------7-----|
--------------------------------------------------|
--6-------6----6-----0--|--1-------1--3-------3--|--5-------5----5-----5--|
--------------------------------------------------|


                                                                            
---------------------------------------------------|
-------10----------5-----|-------8----------8-----|-------3----------5-----|
-------10----------5-----|-------8----------8-----|-------3----------5-----|
---------------------------------------------------|
--8--------0--3-------3--|--6-------6----6-----0--|--1-------1--3-------3--|
---------------------------------------------------|


                                                                            
---------------------------------------------------|
-------6----------6-----|-------10----------5-----|-------8----------8-----|
-------7----------7-----|-------10----------5-----|-------8----------8-----|
---------------------------------------------------|
--5-------5----5-----5--|--8--------0--3-------3--|--6-------6----6-----0--|
---------------------------------------------------|


                                                                           
--------------------------------------------------|
-------3----------5-----|-------6----------6-----|-------2----------2-----|
-------3----------5-----|-------7----------7-----|-------2----------2-----|
--------------------------------------------------|
--1-------1--3-------3--|--5-------5----5-----5--|--0-------0----0-----0--|
--------------------------------------------------|


                                                                           
--------------------------------------------------|
-------5----------5-----|-------3----------5-----|-------6----------6-----|
-------5----------5-----|-------3----------5-----|-------7----------7-----|
--------------------------------------------------|
--3-------3----3-----0--|--1-------1--3-------3--|--5-------5----5-----5--|
--------------------------------------------------|


                                                                           
--------------------------------------------------|
-------2----------2-----|-------5----------5-----|-------3----------5-----|
-------2----------2-----|-------5----------5-----|-------3----------5-----|
--------------------------------------------------|
--0-------0----0-----0--|--3-------3----3-----0--|--1-------1--3-------3--|
--------------------------------------------------|


                                                                           
--------------------------------------------------|
-------6----------6-----|-------2----------2-----|-------5----------5-----|
-------7----------7-----|-------2----------2-----|-------5----------5-----|
--------------------------------------------------|
--5-------5----5-----5--|--0-------0----0-----0--|--3-------3----3-----0--|
--------------------------------------------------|


                                                                           
--------------------------------------------------|
-------3----------5-----|-------6----------6-----|-------2----------2-----|
-------3----------5-----|-------7----------7-----|-------2----------2-----|
--------------------------------------------------|
--1-------1--3-------3--|--5-------5----5-----5--|--0-------0----0-----0--|
--------------------------------------------------|


                                                                          
------------------------------------|--10--------------10h12-|
-------5----------5-----|-------3----------5-----------------|
-------5----------5-----|-------3----------5-----------------|
-------------------------------------------------|
--3-------3----3-----0--|--1-------1--3----------------------|
-------------------------------------------------|


                                                  
--13--------------12h13-|--15--------------12h13h|
-------------------------------------|
-------------------------------------|
-------------------------------------|
-------------------------------------|
-------------------------------------|


                                                                
--15--13--12--10--12--13--12--10--|--10------------------------|
----------------------------------|----------10--10------10-11-|
---------------------------------------------------|
---------------------------------------------------|
---------------------------------------------------|
---------------------------------------------------|


                                                        
-------------------------------------------|
--13--11--10--8--10--11--10--8--|--8--6----------------|
---------------------------------5--5------|
-------------------------------------------|
-------------------------------------------|
-------------------------------------------|


                                                                             
--6--5--5--3--3--1--1--0/-|--10--------------10h12-|--13--------------12h13-|
--8--6--6--5--5--3--3--1/---------------------------|
----------------------------------------------------|
----------------------------------------------------|
----------------------------------------------------|
----------------------------------------------------|


                                                            
--15--------------12h13h|--15--13--12--10--12--13--12--10--|
-----------------------------------------------|
-----------------------------------------------|
-----------------------------------------------|
-----------------------------------------------|
-----------------------------------------------|


                                                              
--10---------------------------------------------|
----------10--10------10-11-|--13--11--10--8--10--11--10--8--|
-------------------------------------------------|
-------------------------------------------------|
-------------------------------------------------|
-------------------------------------------------|


                                                                           
----------------------|--6--5--5--3--3--1--1--0---------------|
--8--6----------------|--8--6--6--5--5--3--3--1--|-------6----------6-----|
------------5--5---------------------|-------7----------7-----|
--------------------------------------------------|
-------------------------------------|--5-------5----5-----5--|
--------------------------------------------------|


                                                                           
--------------------------------------------------|
-------2----------2-----|-------5----------5-----|-------3----------5-----|
-------2----------2-----|-------5----------5-----|-------3----------5-----|
--------------------------------------------------|
--0-------0----0-----0--|--3-------3----3-----0--|--1-------1--3-------3--|
--------------------------------------------------|


                                                                           
--------------------------------------------------|
-------6----------6-----|-------2----------2-----|-------5----------5-----|
-------7----------7-----|-------2----------2-----|-------5----------5-----|
--------------------------------------------------|
--5-------5----5-----5--|--0-------0----0-----0--|--3-------3----3-----0--|
--------------------------------------------------|


                                                                           
--------------------------------------------------|
-------3----------5-----|-------6----------6-----|-------2----------2-----|
-------3----------5-----|-------7----------7-----|-------2----------2-----|
--------------------------------------------------|
--1-------1--3-------3--|--5-------5----5-----5--|--0-------0----0-----0--|
--------------------------------------------------|


                                                                           
--------------------------------------------------|
-------5----------5-----|-------3----------5-----|-------6----------6-----|
-------5----------5-----|-------3----------5-----|-------7----------7-----|
--------------------------------------------------|
--3-------3----3-----0--|--1-------1--3-------3--|--5-------5----5-----5--|
--------------------------------------------------|


                                                                           
--------------------------------------------------|
-------2----------2-----|-------5----------5-----|-------3----------5-----|
-------2----------2-----|-------5----------5-----|-------3----------5-----|
--------------------------------------------------|
--0-------0----0-----0--|--3-------3----3-----0--|--1-------1--3-------3--|
--------------------------------------------------|


                                                                            
---------------------------------------------------|
-------6----------6-----|-------10----------5-----|-------8----------8-----|
-------7----------7-----|-------10----------5-----|-------8----------8-----|
---------------------------------------------------|
--5-------5----5-----5--|--8--------0--3-------3--|--6-------6----6-----0--|
---------------------------------------------------|


                                                                            
---------------------------------------------------|
-------3----------5-----|-------6----------6-----|-------10----------5-----|
-------3----------5-----|-------7----------7-----|-------10----------5-----|
---------------------------------------------------|
--1-------1--3-------3--|--5-------5----5-----5--|--8--------0--3-------3--|
---------------------------------------------------|


                                                                           
--------------------------------------------------|
-------8----------8-----|-------3----------5-----|-------6----------6-----|
-------8----------8-----|-------3----------5-----|-------7----------7-----|
--------------------------------------------------|
--6-------6----6-----0--|--1-------1--3-------3--|--5-------5----5-----5--|
--------------------------------------------------|


                                                                            
---------------------------------------------------|
-------10----------5-----|-------8----------8-----|-------3----------5-----|
-------10----------5-----|-------8----------8-----|-------3----------5-----|
---------------------------------------------------|
--8--------0--3-------3--|--6-------6----6-----0--|--1-------1--3-------3--|
---------------------------------------------------|


                                                                            
---------------------------------------------------|
-------6----------6-----|-------10----------5-----|-------8----------8-----|
-------7----------7-----|-------10----------5-----|-------8----------8-----|
---------------------------------------------------|
--5-------5----5-----5--|--8--------0--3-------3--|--6-------6----6-----0--|
---------------------------------------------------|


                                                                            
---------------------------------------------------|
-------3----------5-----|-------6----------6-----|-------10----------5-----|
-------3----------5-----|-------7----------7-----|-------10----------5-----|
---------------------------------------------------|
--1-------1--3-------3--|--5-------5----5-----5--|--8--------0--3-------3--|
---------------------------------------------------|


                                                                           
--------------------------------------------------|
-------8----------8-----|-------3----------5-----|-------6----------6-----|
-------8----------8-----|-------3----------5-----|-------7----------7-----|
--------------------------------------------------|
--6-------6----6-----0--|--1-------1--3-------3--|--5-------5----5-----5--|
--------------------------------------------------|


                                                                            
---------------------------------------------------|
-------10----------5-----|-------8----------8-----|-------3----------5-----|
-------10----------5-----|-------8----------8-----|-------3----------5-----|
---------------------------------------------------|
--8--------0--3-------3--|--6-------6----6-----0--|--1-------1--3-------3--|
---------------------------------------------------|


                                                                            
---------------------------------------------------|
-------6----------6-----|-------10----------5-----|-------8----------8-----|
-------7----------7-----|-------10----------5-----|-------8----------8-----|
---------------------------------------------------|
--5-------5----5-----5--|--8--------0--3-------3--|--6-------6----6-----0--|
---------------------------------------------------|


                                                                            
---------------------------------------------------|
-------3----------5-----|-------6----------6-----|-------10----------5-----|
-------3----------5-----|-------7----------7-----|-------10----------5-----|
---------------------------------------------------|
--1-------1--3-------3--|--5-------5----5-----5--|--8--------0--3-------3--|
---------------------------------------------------|


                                                                       
---------------------------------------------||
-------8----------8-----|-------3----------5-----|--6----------------||
-------8----------8-----|-------3----------5-----|--7----------------||
-------------------------------------|--7----------------||
--6-------6----6-----0--|--1-------1--3-------3--|--5----------------||
---------------------------------------------||


Текст, аккорды и табулатура для песни "Roulette", исполняет "System Of A Down".
Используемые в песне аккорды можно найти в разделе Как брать аккорды. Аккорды для шестиструнной гитары. Другие песни можно найти на нашем сайте, воспользовавшись алфавитным указателем вверху страницы.


 
Ошибка в тексте? Выделите ошибку и нажмите Ctrl+Enter