intro
| 
| 
| 
|--0--------| 
|--0--------| 
|--0--------|

intro and bit of chorus 
----------------------------------------------| 
----------------------------------------------| 
----------------------------------------------| 
|---0-1-3-1-0-1-3-1-0-1-3-1-0-1--3-3-3-3------------------| 
|---0-1-3-1-0-1-3-1-0-1-3-1-0-1--1-1-1-1------------------| kinda half mute 
|---0-1-3-1-0-1-3-1-0-1-3-1-0-1---------------------------| not fully 4 all

pm------------------------------------ the palm muting bits

into and chorus 
----------------------------------------------| 
----------------------------------------------| 
----------------------------------------------| 
|--0-0--0--0-0-0--3x------0-0-0---3-3-3-3-----------------| 
|--0-0--0--0-0-0----------0-0-0---1-1-1-1-----------------| 
|--0-0--0--0-0-0----------0-0-0---------------------------| 

pm--------------------------------------

verse 
------------------| 
------------------| 
|-----3-----------------------| 
|--1-----1--------------------| 
------------------| 
------------------| 


harmonic a few of these sometimes there not natural harmonics 
1st interlude 
----------------------------------------------| 
|--------3----------2-------------------------------------| 
3----------2----------------------------------| 
|---3---------3----------2----------------------3-3-3-3---| 
|---1----1----------0---------------------------1-1-1-1---| 
---------------0-0--0-0--0-0--0-0--0-0-0------| 
pm-------

2nd interlude 
----------------------------------------------| 
----------------------------------------------| 
----------------------------------------------| 
|---0-0--0--0-0--0--0-0--0--0-0-----3-3-3-3---------------| 
|---0-0--0--0-0--0--0-0--0--0-0-----1-1-1-1---------------| 
|---0-0--0--0-0--0--0-0--0--0-0---------------------------| 
pm---------------------------------------

ending 
--------------------------1-------------------| 
|-------3--------------2--------------3-------------------| 
|---------3-------------2-------------2-------------------| 
|-3---------3-------------2-----------0-------------------| 
|-1---1-------------0-------------------------------------| 
----------------------------------------------| 

They´re trying to build a prison
They´re trying to build a prison



(Growl)



Following the rights movements you clamped on with your iron fists
Drugs became conveniently available for all the kids



Following the rights movements you clamped on with your iron fists
Drugs became conveniently available for all the kids



[Daron]
I buy my crack, I smack my bitch, right here in Hollywood



Nearly 2 million Americans are incarcerated in the the prison system, prison system,
Prison system of the U.S



[Chorus]
(They´re trying to build a prison!)
They´re trying to build a prison
They´re trying to build a prison
They´re trying to build a prison
(For you and me to live in!)
Another prison system
Another prison system
Another prison system
(For you and me to live in!)



Minor drug offenders fill your prisons you don´t even flinch
All our taxes paying for your wars against the new non-rich
x2



[Daron]



The percentage of Americans in the prison system prison system, has doubled since 1985



[Chorus]



For you and I!
x3



They´re trying to build a prison
They´re trying to build a prison
They´re trying to build a prison
For you and me
Oh baby, you and me



(Growl x2)



All research and successful drug policy show that treatment should be increased
(Growl)
And law enforcement decreased while abolishing mandatory minimum sentences
(Growl)
All research and successful drug policy show that treatment should be increased
(Growl)
And law enforcement decreased while abolishing mandatory minimum sentences
(Growl)
(Growl)



Utilizing drugs to pay for secret wars around the world
Drugs are now your global policy, now you police the globe



[Daron]



Drug money is used to rig elections
And train brutal corporate sponsored dictators around the world 



[Chorus]



For you and I!
x3



They´re trying to build a prison
They´re trying to build a prison
They´re trying to build a prison
For you and me
Oh baby, you and me


Текст, аккорды и табулатура для песни "Prison Song", исполняет "System Of A Down".
Используемые в песне аккорды можно найти в разделе Как брать аккорды. Аккорды для шестиструнной гитары. Другие песни можно найти на нашем сайте, воспользовавшись алфавитным указателем вверху страницы.


 
Ошибка в тексте? Выделите ошибку и нажмите Ctrl+Enter