Band:System Of A Down
Song:Pictures
Tuning:CGCFAD
Tabber:Glenn
...=palm-mute
~~~=tremolo
/=slide-up

intro
----------
----------
----------
----------
-1--0-1-3-
-1--0-1-3-

------------------|------------------
------------------|------------------
------------------|------------------
------------------|------------------
-1--0-1-3-4-3-1-3-|-1--0-1-3-6-4-3-4-
-1--0-1-3-4-3-1-3-|-1--0-1-3-6-4-3-4-
          .......            .......

verse
---------------|------------------
---------------|------------------
-7-7-7-7-7-7-7-|------------------
-6-6-6-6-6-6-6-|------------------
-5-5-5-5-5-5-5-|-1--0-1-3-4-3-1-3-
-0-0-0-0-0-0-0-|-1--0-1-3-4-3-1-3-
 ...........              .......

---------------|------------------
---------------|------------------
-7-7-7-7-7-7-7-|------------------
-6-6-6-6-6-6-6-|------------------
-5-5-5-5-5-5-5-|-1--0-1-3-6-4-3-4-
-0-0-0-0-0-0-0-|-1--0-1-3-6-4-3-4-
 ...........              .......

---------------
---------------
-7-7-7-7-7-7-7-
-6-6-6-6-6-6-6-
-5-5-5-5-5-5-5-
-0-0-0-0-0-0-0-
 ...........

chorus
--------------6-5----------------------------6--5-----------------
------8--7-----------8--7------------8--7------------8--7---------
-7---------------------------8--7----------------------------8~~~-
------------------------------------------------------------------
------------------------------------------------------------------
------------------------------------------------------------------

-----------------------------------|-----------------------------------------------------------------
-----------------------------------|-----------------------------------------------------------------
-----------------------------------|-----------------------------------------------------------------
-----------------------------------|-----------------------------------------------------------------
------1--0----5--4----8--7----5--4-|-1-1-0-0-0-0-0-0-5-5-4-4-4-4-4-4-8-8-7-7-7-7-7-7-5-5-4-4-4-4-4-4-
-12/--1--0----5--4----8--7----5--4-|-1-1-0-0-0-0-0-0-5-5-4-4-4-4-4-4-8-8-7-7-7-7-7-7-5-5-4-4-4-4-4-4-
                                     ...............................................................


Текст, аккорды и табулатура для песни "Pictures", исполняет "System Of A Down".
Используемые в песне аккорды можно найти в разделе Как брать аккорды. Аккорды для шестиструнной гитары. Другие песни можно найти на нашем сайте, воспользовавшись алфавитным указателем вверху страницы.


 
Ошибка в тексте? Выделите ошибку и нажмите Ctrl+Enter