-=Marmalade=-
=============
This song's tuning is drop D; then all strings down one whole step
(C-G-C-F-A-D)


Artist: System of a down
Release: Toxicity Maxi
Transcribed by: Alex Schopf
Email: [email protected]
  it took me much time to figure it out!
  I did not have a look at other version yet, and I really hope nothing is    wrong!
A
1:------------------------------------|--------------------------------|
2:------------------------------------|--------------------------------|
3:------------------------------------|--------------------------------|
4:-7-7-10-7-7-7-10-7-7-7-10-7-7-7-10-7|-6-6-9-6-6-6-9-6-6-6-9-6-6-6-9-6|
5:------------------------------------|--------------------------------|
6:------------------------------------|--------------------------------|


B
1:--------------------------------|--------------------------------|
2:---------6-6-5-5---------6-6-5-5|---------6-6-5-5---------6-6-5-5|
3:-----5-5-------------5-5--------|-----4-4-------------4-4--------|
4:-7-7-------------7-7------------|-6-6-------------6-6------------|
5:--------------------------------|--------------------------------|
6:--------------------------------|--------------------------------|


C
1:----------------------------------------------------------------|
2:----------------------------------------------------------------|
3:----------------------------------------------------------------|
4:-----------------------------3--------------1-------------------|
5:-0-0-3-3-1-1-----0-0-3-3-1-1----0-0-3-3-1-1----0-0-3-3-1-1------|
6:-------------2-2-------------------------------------------2-2--|

1:--------------------------------------------------------------|
2:--------------------------------------------------------------|
3:--------------------------------------------------------------|
4:-----------------------------3--------------1-----------------|
5:-0-0-3-3-1-1-----0-0-3-3-1-1----0-0-3-3-1-1----0-0-3-3-1-1----|
6:-------------2-2-------------------------------------------2--|


D
1:-----------------|-----------------|-----------------|-------------------|
2:---5---5---5---5-|---5---5---5---5-|---5---5---5---5-|--5---5----555555-|
3:---5---5---5---5-|---5---5---5---5-|---5---5---5---5-|--5---5----555555-|
4:-----------------|-----------------|-----------------|-------------------|
5:-----------------|-----------------|-----------------|-------------------|
6:-----------------|-----------------|-----------------|-------------------|


E
   pm..........      ...      ...        pm.........     ...     ...
1:-------------------------------------|---------------------------------|
2:-------------------------------------|---------------------------------|
3:-------------------------------------|---------------------------------|
4:-------------------------------------|---------------------------------|
5:-7-7-10-7-7-7-10^7-7-7-10^7-7-7-10^7-|-6-6-9-6-6-6-9^6-6-6-9^6-6-6-9-9-|
6:-7-7-10-7-7-7-10^7-7-7-10^7-7-7-10^7-|-6-6-9-6-6-6-9^6-6-6-9^6-6-6-9-9-|


F
1:-----------------|-----------------|
2:---5---5---5---5-|---5---5---5---5-|
3:---5---5---5---5-|---5---5---5---5-|
4:-----------------|-----------------|
5:-----------------|-----------------|
6:-----------------|-----------------|

1:--------------------------------------------------------------|
2:--------------------------------------------------------------|
3:--------------------------------------------------------------|
4:-----------------------------3--------------1-----------------|
5:-0-0-3-3-1-1-----0-0-3-3-1-1----0-0-3-3-1-1----0-0-3-3-1-1----|
6:-------------2-2-------------------------------------------2--|


G(in the 2nd time the 5-6-5-sequence is played with artificial harmonics)
pm........................................................................
1:------------------------------------|------------------------------------|
2:---5-6-5----5-6-5----5-6-5----5-6-5-|---5-6-5----5-6-5----5-6-5----5-6-5-|
3:------------------------------------|------------------------------------|
4:-7--------7--------7--------7-------|-6--------6--------6--------6-------|
5:------------------------------------|------------------------------------|
6:------------------------------------|------------------------------------|

1:------------------------------------|------------------------------------|
2:---5-6-5----5-6-5----5-6-5----5-6-5-|---5-6-5----5-6-5----5-6-5----5-6-5-|
3:------------------------------------|------------------------------------|
4:-7--------7--------7--------7-------|-6--------6--------6--------6-------|
5:------------------------------------|------------------------------------|
6:------------------------------------|------------------------------------|


Solo
1:--8--8--8--8--8--8--8--8-10-10-10-10-12-12-12-12-|------------------------|
2:-10-10-10-10-10-10-10-10-12-12-12-12-13-13-13-13-|12-12-12-12-12-12-12-12-|
3:-------------------------------------------------|13-13-13-13-13-13-13-13-|
4:-------------------------------------------------|------------------------|
5:-------------------------------------------------|------------------------|
6:-------------------------------------------------|------------------------|

1:-12-12-12-12-10-10-10-10-|--8--8--8--8--8--8--8--8-10-10-10-10-12-12-12-12-|
2:-13-13-13-13-12-12-12-12-|-10-10-10-10-10-10-10-10-12-12-12-12-13-13-13-13-|
3:-------------------------|-------------------------------------------------|
4:-------------------------|-------------------------------------------------|
5:-------------------------|-------------------------------------------------|
6:-------------------------|-------------------------------------------------|

1:-------------------------12-12-12-12-10-10-10-10-|-------------------------|
2:-12-12-12-12-12-12-12-12-13-13-13-13-12-12-12-12-|-10-10-12-12-13-13-12-12-|
3:-12-12-12-12-12-12-12-12-------------------------|-------------------------|
4:-------------------------------------------------|-------------------------|
5:-------------------------------------------------|-------------------------|
6:-------------------------------------------------|-------------------------|

1:-10-10-------------------|-----------------------------------------------|
2:-------13-13-12-12-13-12-|-9-9-10-10-12-12-10-10-13-13-12-12-10-10-12-12-|
3:-------------------------|-----------------------------------------------|
4:-------------------------|-----------------------------------------------|
5:-------------------------|-----------------------------------------------|
6:-------------------------|-----------------------------------------------|

1:-------------------------10-10-------------------|-------------------------|
2:-10-10-12-12-13-13-12-12-------13-13-12-12-13-12-|-------10-10-12-12-10-10-|
3:-------------------------------------------------|-12-12-------------------|
4:-------------------------------------------------|-------------------------|
5:-------------------------------------------------|-------------------------|
6:-------------------------------------------------|-------------------------|

1:-12-12-10-10-13-13-12-|
2:------------------------|
3:------------------------|
4:------------------------|
5:------------------------|
6:------------------------|


H (this riff is HEAVY palm muted)
  3x:                       1x:
1:-------------------------|-----------------------|
2:-14-14-14-14-14-14-14-14-|-14-14-14-14-14-14-14--|
3:-15-15-15-15-15-15-15-15-|-15-15-15-15-15-15-15--|
4:-------------------------|-----------------------|
5:-------------------------|-----------------------|
6:-------------------------|-----------------------|


I
pm.......................................
1:------------------------------------|----|
2:---5-6-5----5-6-5----5-6-5----5-6-5-|----|
3:------------------------------------|----|
4:-7--------7--------7--------7-------|-6--|
5:------------------------------------|----|
6:------------------------------------|----|
  it's 100% right! HAVW FUN WITH THIS AMAZING SONG!

ORDER:
=====

A 8x
B 4x
C
D
E 2x
B 2x
F
E 2x
B 2x
G
Solo
[Short break for guitar; only bass]
H
E 2x
B 2x
I


Текст, аккорды и табулатура для песни "Marmalade", исполняет "System Of A Down".
Используемые в песне аккорды можно найти в разделе Как брать аккорды. Аккорды для шестиструнной гитары. Другие песни можно найти на нашем сайте, воспользовавшись алфавитным указателем вверху страницы.


 
Ошибка в тексте? Выделите ошибку и нажмите Ctrl+Enter